Song name
# A B C D E F G H I J K L M N O P Q R S T U V W X Y Z

Linea 77 - Il Mostro tab

I'm not a good guitar player , but I'm sure that this is a good tab.
Great Linea 77 !!!!!         by  Leon35

e|------------------------|
B|------------------------|
G|--7-(x30)---------------|
D|--0---------------------|
A|------------------------|
D|------------------------|

e|------------------------|      e|------------------------|
B|------------------------|      B|------------------------|
G|------------------------|      G|------------------------|
D|-8-5-8--5---8-5-8--5--8-| x2   D|-3-0-3--0---3-0-3--0--3-| x2
A|-8-5-8--5---8-5-8--5--8-|      A|-3-0-3--0---3-0-3--0--3-|
D|-8-5-8--5---8-5-8--5--8-|      D|-3-0-3--0---3-0-3--0--3-|
        
                  \                     /
                   \________ x4 _______/


e|------------------------|
B|------------------------|
G|-12-=--8-=--10-=--8-=---|
D|-x--=--x-=---x-=--x-=---|x2
A|-10-=--6-=---8-=--6-=---|
D|------------------------|

e|---------------------------------------------------------------------------------------------|
B|---------------------------------------------------------------------------------------------|
G|---------------------------------------------------------------------------------------------| 
D|-5-5-5--5---5-5-5--5---5-5-5---1-1-1--1---1-1-1--1---1-1-1----5---------3-0-3--0---3-0-3--0--| x2
A|-5-5-5--5---5-5-5--5---5-5-5---1-1-1--1---1-1-1--1---1-1-1----5-(x16)---3-0-3--0---3-0-3--0--|
D|-5-5-5--5---5-5-5--5---5-5-5---1-1-1--1---1-1-1--1---1-1-1----5---------3-0-3--0---3-0-3--0--|

e|------------------------|
B|------------------------|
G|--7-(x30)---------------|
D|--0---------------------|
A|------------------------|
D|------------------------|

e|------------------------|      e|------------------------|
B|------------------------|      B|------------------------|
G|------------------------|      G|------------------------|
D|-8-5-8--5---8-5-8--5--8-| x2   D|-3-0-3--0---3-0-3--0--3-| x2
A|-8-5-8--5---8-5-8--5--8-|      A|-3-0-3--0---3-0-3--0--3-|
D|-8-5-8--5---8-5-8--5--8-|      D|-3-0-3--0---3-0-3--0--3-|
        
                  \                     /
                   \________ x4 _______/


e|----------------------------------|
B|----------------------------------|
G|-----------12-=--8-=--10-=--8-=---|
D|-x-x--x-x--x--=--x-=---x-=--x-=---|x2
A|-x-x--x-x--10-=--6-=---8-=--6-=---|
D|-x-x--x-x-------------------------|

e|---------------------------------------------------------------------------------------------|
B|---------------------------------------------------------------------------------------------|
G|---------------------------------------------------------------------------------------------| 
D|-5-5-5--5---5-5-5--5---5-5-5---1-1-1--1---1-1-1--1---1-1-1----5---------3-0-3--0---3-0-3--0--| x2
A|-5-5-5--5---5-5-5--5---5-5-5---1-1-1--1---1-1-1--1---1-1-1----5-(x16)---3-0-3--0---3-0-3--0--|
D|-5-5-5--5---5-5-5--5---5-5-5---1-1-1--1---1-1-1--1---1-1-1----5---------3-0-3--0---3-0-3--0--|

e|-10---10---------10---------5---5-------5-----|
B|-11------11-8-11----11-8----6-----6-3-6---6-3-|
G|----------------------------------------------| x2
D|----------------------------------------------|
A|----------------------------------------------|
D|----------------------------------------------|

e|--------10------10------10--------|      e|-------5-----5-----5-------|
B|-8-11-8----11-8----11-8----11-8---|      B|-3-6-3---6-3---6-3---6-3---|
G|----------------------------------|      G|---------------------------|
D|----------------------------------| x2   D|---------------------------| x2
A|----------------------------------|      A|---------------------------|
D|----------------------------------|      D|---------------------------|

                            \                     /
                             \________ x4 _______/

e|-----------------------------------|
B|-----------------------------------|
G|-----------------------------------|
D|-0--0-0--0-0-0--0--0---0-0-------0-|
A|-0--0-0--0-0-0--0--0---0-0-(x16)-0-|
D|-0--0-0--0-0-0--0--0---0-0-------0-|
Tap to rate this tab
# A B C D E F G H I J K L M N O P Q R S T U V W X Y Z