Song name
# A B C D E F G H I J K L M N O P Q R S T U V W X Y Z

Linea 77 - Evoluzione tab

Title     : Evoluzione
Artist    : Linea 77
Album     : Available for Propaganda
Tabbed by : Tim Smit

Intro; distortion, fast strum
   B        G
e:----|   |----|      
b:-12-|   |-12-|
g:-11-|   |-12-|
d:-9--|   |-9--|
a:----|   |----|
d:----|16x|----|16x

   G           D     B          D C#
e:----------------|------------------|
b:----------------|------------------|
g:----------------|------------------|
d:-9-9--0h9-9--12~|-5-5--0h5-5-12-11-|
a:-9-9--0h9-9--12~|-5-5--0h5-5-12-11-|
d:-9-9--0h9-9--12~|-5-5--0h5-5-12-11-|

Verse 1; distortion
B
Resto fermo a guardare
G
il cambiamento nell'immobilita' e,
B
sospeso nell'aria, sento
G
lo scorrere del tuo pensiero fuori e dentro di me.
B
mi sembra inutile restare
G
sospeso tra l'ebbrezza e la vertigine
B
di una scelta inevitabile,
           G
restare immobile non mi salvera'.

Pre-Chorus;
   F#                G
e:--------|--------|--------|--------|
b:--------|--------|--------|--------|
g:--------|--------|--------|--------|
d:-4-4-4~-|-4-4-4~-|-5-5-5~-|-5-5-5~-|
a:-4-4-4~-|-4-4-4~-|-5-5-5~-|-5-5-5~-|
d:-4-4-4~-|-4-4-4~-|-5-5-5~-|-5-5-5~-|
F#
volare nascosto nei cieli di questa citta',
G
cercando un facile bersaglio, l'evoluzione e' tutta qu�.

Break; distortion
e:--------------|
b:--------------|
g:--------------|
d:-0-0-0-7-7-7!-|
a:-0-0-0-7-7-7!-|
d:-0-0-0-7-7-7!-|

Chorus; distortion
     B   F#              B   F#              G   D           G   D
e:-------------------|-------------------|---------------|---------------|
b:-------------------|-------------------|---------------|---------------|
g:-------11-11-11-11-|-------11-11-11-11-|-------7-7-7-7-|-------7-7-7-7-|
d:-0h9-9-11-11-11-11-|-0h9-9-11-11-11-11-|-0h5-5-7-7-7-7-|-0h5-5-7-7-7-7-|
a:-0h9-9--9--9--9--9-|-0h9-9--9--9--9--9-|-0h5-5-5-5-5-5-|-0h5-5-5-5-5-5-|
d:-0h9-9-------------|-0h9-9-------------|-0h5-5---------|-0h5-5---------|

   D    A           D    A         A    E           A    E
e:--------------|--------------|----------------|----------------|
b:--------------|--------------|----------------|----------------|
g:------2-2-2-2-|------2-2-2-2-|--------9-9-9-9-|--------9-9-9-9-|
d:-0-0--2-2-2-2-|-0-0--2-2-2-2-|-0h7-7--9-9-9-9-|-0h7-7--9-9-9-9-|
a:-0-0--0-0-0-0-|-0-0--0-0-0-0-|-0h7-7--7-7-7-7-|-0h7-7--7-7-7-7-|
d:-0-0----------|-0-0----------|-0h7-7----------|-0h7-7----------|
B
come piloti in folle corsa
             G
il traguardo come premio e maledizione,
                      D
piu' spingi e piu' ne vuoi, tra crudelta' e sopravvivenza,
       A
alla ricerca di una nuova evoluzione.



Verse 2; als verse 1; distortion

mi suona inutile la scelta se
e' tra ego e passivita' che
rende sterili le azioni fatte
per paura di fallire.
da chi? da cosa? dimmi.
l'inquieto vivere che ingabbia dentro i sogni di
tutto quel che hai.
l'apparenza inganna il tempo e lo paghi col rancore.

Pre-Chorus;
   F#                G
e:--------|--------|--------|--------|
b:--------|--------|--------|--------|
g:--------|--------|--------|--------|
d:-4-4-4~-|-4-4-4~-|-5-5-5~-|-5-5-5~-|
a:-4-4-4~-|-4-4-4~-|-5-5-5~-|-5-5-5~-|
d:-4-4-4~-|-4-4-4~-|-5-5-5~-|-5-5-5~-|
F#
volare nascosto nei cieli di questa citta',
G
cercando un facile bersaglio, l'evoluzione e' tutta qua.

Chorus; distortion
     B   F#              B   F#              G   D           G   D
e:-------------------|-------------------|---------------|---------------|
b:-------------------|-------------------|---------------|---------------|
g:-------11-11-11-11-|-------11-11-11-11-|-------7-7-7-7-|-------7-7-7-7-|
d:-0h9-9-11-11-11-11-|-0h9-9-11-11-11-11-|-0h5-5-7-7-7-7-|-0h5-5-7-7-7-7-|
a:-0h9-9--9--9--9--9-|-0h9-9--9--9--9--9-|-0h5-5-5-5-5-5-|-0h5-5-5-5-5-5-|
d:-0h9-9-------------|-0h9-9-------------|-0h5-5---------|-0h5-5---------|

   D    A           D    A         A    E           A    E
e:--------------|--------------|----------------|----------------|
b:--------------|--------------|----------------|----------------|
g:------2-2-2-2-|------2-2-2-2-|--------9-9-9-9-|--------9-9-9-9-|
d:-0-0--2-2-2-2-|-0-0--2-2-2-2-|-0h7-7--9-9-9-9-|-0h7-7--9-9-9-9-|
a:-0-0--0-0-0-0-|-0-0--0-0-0-0-|-0h7-7--7-7-7-7-|-0h7-7--7-7-7-7-|
d:-0-0----------|-0-0----------|-0h7-7----------|-0h7-7----------|
B
come piloti in folle corsa
             G
il traguardo come premio e maledizione,
                      D
piu' spingi e piu' ne vuoi, tra crudelta' e sopravvivenza,
       A
alla ricerca di una nuova evoluzione.

Bridge; als Pre-Chorus;
   F#                G
e:--------|--------|--------|--------|
b:--------|--------|--------|--------|
g:--------|--------|--------|--------|
d:-4-4-4~-|-4-4-4~-|-5-5-5~-|-5-5-5~-|
a:-4-4-4~-|-4-4-4~-|-5-5-5~-|-5-5-5~-|
d:-4-4-4~-|-4-4-4~-|-5-5-5~-|-5-5-5~-|1x zonder tekst, dan;
F#
come bestie indomite, irrazionali,
G
cercando un facile bersaglio, e tutto si risolvera'.

Bridge; als Chorus, nauwelijks distortion;
    B   F#              B   F#              G   D           G   D
e:-------------------|-------------------|---------------|---------------|
b:-------------------|-------------------|---------------|---------------|
g:-------11-11-11-11-|-------11-11-11-11-|-------7-7-7-7-|-------7-7-7-7-|
d:-0h9-9-11-11-11-11-|-0h9-9-11-11-11-11-|-0h5-5-7-7-7-7-|-0h5-5-7-7-7-7-|
a:-0h9-9--9--9--9--9-|-0h9-9--9--9--9--9-|-0h5-5-5-5-5-5-|-0h5-5-5-5-5-5-|
d:-0h9-9-------------|-0h9-9-------------|-0h5-5---------|-0h5-5---------|

   D    A           D    A         A    E           A    E
e:--------------|--------------|----------------|----------------|
b:--------------|--------------|----------------|----------------|
g:------2-2-2-2-|------2-2-2-2-|--------9-9-9-9-|--------9-9-9-9-|
d:-0-0--2-2-2-2-|-0-0--2-2-2-2-|-0h7-7--9-9-9-9-|-0h7-7--9-9-9-9-|
a:-0-0--0-0-0-0-|-0-0--0-0-0-0-|-0h7-7--7-7-7-7-|-0h7-7--7-7-7-7-|
d:-0-0----------|-0-0----------|-0h7-7----------|-0h7-7----------|
B                  G
intorno a me sento che
                     D
la rabbia cresce per
                        A
l'assenza di un idea di   evoluZIONE!

Chorus; distortion
     B   F#              B   F#              G   D           G   D
e:-------------------|-------------------|---------------|---------------|
b:-------------------|-------------------|---------------|---------------|
g:-------11-11-11-11-|-------11-11-11-11-|-------7-7-7-7-|-------7-7-7-7-|
d:-0h9-9-11-11-11-11-|-0h9-9-11-11-11-11-|-0h5-5-7-7-7-7-|-0h5-5-7-7-7-7-|
a:-0h9-9--9--9--9--9-|-0h9-9--9--9--9--9-|-0h5-5-5-5-5-5-|-0h5-5-5-5-5-5-|
d:-0h9-9-------------|-0h9-9-------------|-0h5-5---------|-0h5-5---------|

   D    A           D    A         A    E           A    E
e:--------------|--------------|----------------|----------------|
b:--------------|--------------|----------------|----------------|
g:------2-2-2-2-|------2-2-2-2-|--------9-9-9-9-|--------9-9-9-9-|
d:-0-0--2-2-2-2-|-0-0--2-2-2-2-|-0h7-7--9-9-9-9-|-0h7-7--9-9-9-9-|
a:-0-0--0-0-0-0-|-0-0--0-0-0-0-|-0h7-7--7-7-7-7-|-0h7-7--7-7-7-7-|
d:-0-0----------|-0-0----------|-0h7-7----------|-0h7-7----------|
B
come piloti in folle corsa
             G
il traguardo come premio e maledizione,
                      D
piu' spingi e piu' ne vuoi, tra crudelta' e sopravvivenza,
       A
alla ricerca di una nuova evoluzione.

Outro; distortion
e:-------------------|
b:-------------------|
g:-------11-11-11-11-|
d:-0h9-9-11-11-11-11-|
a:-0h9-9--9--9--9--9-|
d:-0h9-9-------------| 8x

sopravvivi e tutto si risolvera'

sopravvivi e tutto si risolvera'
Tap to rate this tab
 
# A B C D E F G H I J K L M N O P Q R S T U V W X Y Z