Song name
# A B C D E F G H I J K L M N O P Q R S T U V W X Y Z

Linen - We Are Who We Are tab

this is linen's second song the first one had no name to begin with but now it does 
its been found out its called  "song for whoever" this one is as easy as the last one

Verse
--------------
--------------
----2---2-----     <--- repeat thru verse
--2-2-2-2-----
--2---2-------
--------------
Chorus
--3------3----2----------
--------------3----------
------1-------2----------
------2------------------
--2---2--2---------------
--3------3---------------

altho its not a great solo here it is

------------------------12-15---15--17/---17/--15--12
------------------12--15-----------------------------
-----------12--15------------------------------------
-----12-15-------------------------------------------
-15--------------------------------------------------
-----------------------------------------------------

end solo
-------------------
-------------------
-------------------
--11--9------------
----------10-------
-------------0-----

well that is all at the moment there will be more as soon as i can get them :)
Sweeney
Tap to rate this tab
# A B C D E F G H I J K L M N O P Q R S T U V W X Y Z