Song name
# A B C D E F G H I J K L M N O P Q R S T U V W X Y Z

Link 80 - Verbal Kint tab

Chorus-Distorted
------------------------|
------------------------|
7-5-3-5-----------------|
7-5-3-5-----------------|
5-3-1-3-----------------|
------------------------|

Verse
5-3-1-3-----------------|
7-5-3-5-----------------|
7-5-3-5-----------------|
7-5-3-5-----------------|
------------------------|
------------------------|
*the verse is not actually in the song.  But you can strum it along with the trumpet 
this song really doesn't have much guitar in it
Tap to rate this tab
# A B C D E F G H I J K L M N O P Q R S T U V W X Y Z