Song name
# A B C D E F G H I J K L M N O P Q R S T U V W X Y Z

Link Wray - Dixie Doodle tab

 well, this isnt the whole song but this is  more than enough
 to get you playing the song in no time! :)


                     "Dixie Doodle" as recorded by Link Wray & The WrayMen
dixie part:
|-----------|---------|---------|---------|--------------|
|-----------|---------|---------|---------|--------------|
|-----------|---------|---------|---------|--------------|
|-----------|---------|---------|-----2-2-|---4~~---2~~~-|
|-----------|---2-2-2-|---4-4-4-|---4-----|-4-----4------|
|--4--0-0-0-|-4-------|-4-------|-4-------|--------------|


|------------------|---------------|--------|--------------|
|------------------|---------------|--------|--------------|
|------------------|---------------|--------|--------------|
|------------------|-2-2--6--4--2--|----2-2-|----4~~---4~~-|
|--4-2-4-2---------|---------------|-4------|-4------4-----|
|----------4--0~~~-|---------------|--------|--------------|


|----------------|-------|----------------|----------------------------|
|----------------|-------|----------------|----------------------------|
|----------------|-------|----------------|----------------------------|
|--2-2--6--4--2--|---2-2-|----------------|-----------2--6~~--2-4-2~~~-|
|----------------|-4-----|-4-2-4-2--------|---------4------------------|
|----------------|-------|---------4-0~~~-|-4-2~~-4--------------------|

doodle part:

|--3-3--7-7--5--7--3-|---3-3--5--7--5--3--|
|--------------------|-3------------------|
|--------------------|--------------------|
|--------------------|--------------------|
|--------------------|--------------------|
|--------------------|--------------------|


|----3-3--5--7-8-7--5-|-3-3-----0-2-3-3--|
|--3------------------|------3-----------|
|---------------------|------------------|
|---------------------|------------------|
|---------------------|------------------|
|---------------------|------------------|

then:
|-----------------------------|
|-----------------------------|
|-----------------------------|
|--/2~~~~/2~~~~-/2-/2-/2~~~---|
|--/2~~~~/2~~~~-/2-/2-/2~~~---|
|-----------------------------|

and back into:

|-----------|---------|---------|---------|--------------|
|-----------|---------|---------|---------|--------------|
|-----------|---------|---------|---------|--------------|
|-----------|---------|---------|-----2-2-|---4~~---2~~~-|
|-----------|---2-2-2-|---4-4-4-|---4-----|-4-----4------|
|--4--0-0-0-|-4-------|-4-------|-4-------|--------------|


|------------------|---------------|--------|--------------|
|------------------|---------------|--------|--------------|
|------------------|---------------|--------|--------------|
|------------------|-2-2--6--4--2--|----2-2-|----4~~---4~~-|
|--4-2-4-2---------|---------------|-4------|-4------4-----|
|----------4--0~~~-|---------------|--------|--------------|


|----------------|-------|----------------|----------------------------|
|----------------|-------|----------------|----------------------------|
|----------------|-------|----------------|----------------------------|
|--2-2--6--4--2--|---2-2-|----------------|-----------2--6~~--2-4-2~~~-|
|----------------|-4-----|-4-2-4-2--------|---------4------------------|
|----------------|-------|---------4-0~~~-|-4-2~~-4--------------------|

and end with:

|--0~~~-0~~~-|
|--3~~~-0~~~-|
|--2~~~-1~~~-|
|--0~~~-2~~~-|
|--0----2~~~-|
|-------0~~~-|


and thats it! thats all i have to Link Wrays classic recording of "DIXIE DOODLE"
hooray! play this and make Link proud!

-Bert (the TOAST!)
Tap to rate this tab
 
# A B C D E F G H I J K L M N O P Q R S T U V W X Y Z