Guitaretab - guitar tabs
Song name
# A B C D E F G H I J K L M N O P Q R S T U V W X Y Z

Linkin Park - What Ive Done Acoustic tab

Well... I got bored during study leave, so I made up this acoustic version of
What I've Done.

The lyrics aren't quite in the right place, but you can get the jist.
In places, it's not true to the actual song, which it's not meant to be, it's
just an acoustic cover for one guitarist and one vocalist. =]

Enjoy.

e|-----------------|-----------------|
B|---3---3-4-3---3-|---3---3-4-3---3-|
G|-0---0-------0---|-0---0-------0---|
D|-----------------|-----------------|
A|-----------------|-----------------|
E|-----------------|-----------------|

e|-----------------|-----------------|-----------------|-----------------|
B|---3---3-4-3---3-|---3---3-4-3---3-|---3---3-4-3---3-|---3---3-4-3---3-|
G|-0---0-------0---|-0---0-------0---|-0---0-------0---|-0---0-------0---|
D|-----------------|-----------------|-----------------|-----------------|
A|-----------------|-1---------------|-----------------|-3---------------|
E|-3---------------|-----------------|-1---------------|-----------------|

e|-----------------|-----------------|-----------------|-----------------|
B|---3---3-4-3---3-|---3---3-4-3---3-|---3---3-4-3---3-|---3---3-4-3---3-|
G|-0---0-------0---|-0---0-------0---|-0---0-------0---|-0---0-------0---|
D|-----------------|-----------------|-----------------|-----------------|
A|-----------------|-1---------------|-----------------|-3---------------|
E|-3---------------|-----------------|-1---------------|-----------------|

             Gm          G     Gm          Gsus4 F                 D#          F    
e|-x-x-x-x-|-----------------|-----------------|-----------------|-----------------|
B|-x-x-x-x-|-----------------|-----------------|-----------------|-----------------|
G|-x-x-x-x-|-3-3-3-3-3-3-2-2-|-3-3-3-3-3-3-5-5-|-2-2-2-2-2-2-2-2-|-0-0-0-0-0-0-2-2-|
D|-x-x-x-x-|-5-5-5-5-5-5-5-5-|-5-5-5-5-5-5-5-5-|-3-3-3-3-3-3-3-3-|-1-1-1-1-1-1-3-3-|
A|-x-x-x-x-|-----------------|-----------------|-----------------|-----------------|
E|-x-x-x-x-|-----------------|-----------------|-----------------|-----------------|
             Wow!

   Gm          G     Gm          Gsus4 F                 D#          F    
e|-----------------|-----------------|-----------------|-----------------|
B|-----------------|-----------------|-----------------|-----------------|
G|-3-3-3-3-3-3-2-2-|-3-3-3-3-3-3-5-5-|-2-2-2-2-2-2-2-2-|-0-0-0-0-0-0-2-2-|
D|-5-5-5-5-5-5-5-5-|-5-5-5-5-5-5-5-5-|-3-3-3-3-3-3-3-3-|-1-1-1-1-1-1-3-3-|
A|-----------------|-----------------|-----------------|-----------------|
E|-----------------|-----------------|-----------------|-----------------|

e|------------------|
B|---3---3-4-3----3-|
G|-3---0--------0---|
D|-5----------------|
A|------------------|
E|------------------|
       In  this fare-

e|-----------------------|------------------------|-----------------|----------------------|
B|---3---3-4-3---------3-|---3---3-4-3---------3--|---3---3-4-3---3-|---3-----3--4-3-----3-|
G|-0---0-------0---------|-0---0-------0----------|-0---0-------0---|-0-----0----------0---|
D|-----------------------|------------------------|-----------------|----------------------|
A|-----------------------|-1----------------------|-----------------|-3--------------------|
E|-3---------------------|------------------------|-1---------------|----------------------|
   well,       there's no  blood,      there's no   a---li--bi.      'Cause I've drawn re-

e|--------------------|------------------|------------------|-------------------|
B|---3---3-4-3------3-|---3---3-4-3----3-|---3---3--4-3---3-|---3---3---4-3---3-|
G|-0---0-------0------|-0---0-------0----|-0---0--------0---|-0---0---------0---|
D|--------------------|------------------|------------------|-------------------|
A|--------------------|-1----------------|------------------|-3-----------------|
E|-3------------------|------------------|-1----------------|-------------------|
   gret        from the truth       of a   thousand lies.     So  let mercy

   Gm                A#                F                 Cm
e|-3-3-3-3-3-3-3-3-|-----------------|-1-1-1-1-1-1-1-1-|-----|
B|-3-3-3-3-3-3-3-3-|-3-3-3-3-3-3-3-3-|-1-1-1-1-1-1-1-1-|-4---|
G|-3-3-3-3-3-3-3-3-|-3-3-3-3-3-3-3-3-|-2-2-2-2-2-2-2-2-|-5---|
D|-5-5-5-5-5-5-5-5-|-3-3-3-3-3-3-3-3-|-3-3-3-3-3-3-3-3-|-5---|
A|-5-5-5-5-5-5-5-5-|-1-1-1-1-1-1-1-1-|-3-3-3-3-3-3-3-3-|-3---|
E|-3-3-3-3-3-3-3-3-|-----------------|-1-1-1-1-1-1-1-1-|-----|
   come        and   wash        a-----way               what 

             Gm          G     Gm          Gsus4 F                 D#          F    
e|-x-x-x-x-|-----------------|-----------------|-----------------|-----------------|
B|-x-x-x-x-|-----------------|-----------------|-----------------|-----------------|
G|-x-x-x-x-|-3-3-3-3-3-3-2-2-|-3-3-3-3-3-3-5-5-|-2-2-2-2-2-2-2-2-|-0-0-0-0-0-0-2-2-|
D|-x-x-x-x-|-5-5-5-5-5-5-5-5-|-5-5-5-5-5-5-5-5-|-3-3-3-3-3-3-3-3-|-1-1-1-1-1-1-3-3-|
A|-x-x-x-x-|-----------------|-----------------|-----------------|-----------------|
E|-x-x-x-x-|-----------------|-----------------|-----------------|-----------------|
   I've      done.       I'll  face    my--self  to cross out what I've        be

   Gm          G     Gm          Gsus4 F                 D#          F    
e|-----------------|-----------------|-----------------|-----------------|
B|-----------------|-----------------|-----------------|-----------------|
G|-3-3-3-3-3-3-2-2-|-3-3-3-3-3-3-5-5-|-2-2-2-2-2-2-2-2-|-0-0-0-0-0-0-2-2-|
D|-5-5-5-5-5-5-5-5-|-5-5-5-5-5-5-5-5-|-3-3-3-3-3-3-3-3-|-1-1-1-1-1-1-3-3-|
A|-----------------|-----------------|-----------------|-----------------|
E|-----------------|-----------------|-----------------|-----------------|
   come.       E-----rase    my--self  and let go of what I've         
[ Tab from: http://www.guitaretab.com/l/linkin-park/108592.html ]
e|-------------------|--------------------|------------------|-----------------|
B|---3---3-4-3-----3-|---3---3-4-3------3-|---3---3-4-3----3-|---3---3-4-3---3-|
G|-0---0-------0-----|-0---0-------0------|-0---0-------0----|-0---0-------0---|
D|-------------------|--------------------|------------------|-----------------|
A|-------------------|-1------------------|------------------|-3---------------|
E|-1-----------------|--------------------|-1----------------|-----------------|
   done.       Put to  rest        what you thought     of me, while I clean this 

e|--------------------|------------------|-----------------|-----------------|
B|---3---3-4-3------3-|---3---3-4-3----3-|---3---3-4-3---3-|---3---3-4-3---3-|
G|-0---0-------0------|-0---0-------0----|-0---0-------0---|-0---0-------0---|
D|--------------------|------------------|-----------------|-----------------|
A|--------------------|-1----------------|-----------------|-3---------------|
E|-3------------------|------------------|-1---------------|-----------------|
   slate       with the hands       of  un-cer-tainty.       So  let mercy

   Gm                A#                F                 Cm
e|-3-3-3-3-3-3-3-3-|-----------------|-1-1-1-1-1-1-1-1-|-----|
B|-3-3-3-3-3-3-3-3-|-3-3-3-3-3-3-3-3-|-1-1-1-1-1-1-1-1-|-4---|
G|-3-3-3-3-3-3-3-3-|-3-3-3-3-3-3-3-3-|-2-2-2-2-2-2-2-2-|-5---|
D|-5-5-5-5-5-5-5-5-|-3-3-3-3-3-3-3-3-|-3-3-3-3-3-3-3-3-|-5---|
A|-5-5-5-5-5-5-5-5-|-1-1-1-1-1-1-1-1-|-3-3-3-3-3-3-3-3-|-3---|
E|-3-3-3-3-3-3-3-3-|-----------------|-1-1-1-1-1-1-1-1-|-----|
   come        and   wash        a-----way               what 

             Gm          G     Gm          Gsus4 F                 D#          F    
e|-x-x-x-x-|-----------------|-----------------|-----------------|-----------------|
B|-x-x-x-x-|-----------------|-----------------|-----------------|-----------------|
G|-x-x-x-x-|-3-3-3-3-3-3-2-2-|-3-3-3-3-3-3-5-5-|-2-2-2-2-2-2-2-2-|-0-0-0-0-0-0-2-2-|
D|-x-x-x-x-|-5-5-5-5-5-5-5-5-|-5-5-5-5-5-5-5-5-|-3-3-3-3-3-3-3-3-|-1-1-1-1-1-1-3-3-|
A|-x-x-x-x-|-----------------|-----------------|-----------------|-----------------|
E|-x-x-x-x-|-----------------|-----------------|-----------------|-----------------|
   I've      done.       I'll  face    my--self  to cross out what I've        be

   Gm          G     Gm          Gsus4 F                 D#          F    
e|-----------------|-----------------|-----------------|-----------------|
B|-----------------|-----------------|-----------------|-----------------|
G|-3-3-3-3-3-3-2-2-|-3-3-3-3-3-3-5-5-|-2-2-2-2-2-2-2-2-|-0-0-0-0-0-0-2-2-|
D|-5-5-5-5-5-5-5-5-|-5-5-5-5-5-5-5-5-|-3-3-3-3-3-3-3-3-|-1-1-1-1-1-1-3-3-|
A|-----------------|-----------------|-----------------|-----------------|
E|-----------------|-----------------|-----------------|-----------------|
   come.       E-----rase    my--self  and let go of what I've         
    

e|-----------------|---6---6---6-----|-----------------|---5-------------|
B|---6---6---6---8-|---------------8-|---6---6---6---8-|-------8---6---8-|
G|-7---7---7---7---|-7---7---7---7---|-7---7---7---7---|-7---7---7---7---|
D|-----------------|-----------------|-----------------|-----------------|
A|-----------------|-----------------|-----------------|-----------------|
E|-----------------|-----------------|-----------------|-----------------|
   done.

e|-----------------|---6---6---6-----|-----------------|---5-------------|
B|---6---6---6---8-|---------------8-|---6---6---6---8-|-------8---6---8-|
G|-7---7---7---7---|-7---7---7---7---|-7---7---7---7---|-7---7---7---7---|
D|-----------------|-----------------|-----------------|-----------------|
A|-----------------|-----------------|-----------------|-----------------|
E|-----------------|-----------------|-----------------|-----------------|
                                                                   For what 

                   Gm          G     Gm          Gsus4 F                 D#          F    
e|-x-x-x-x-------|-----------------|-----------------|-----------------|-----------------|
B|-x-x-x-x-------|-----------------|-----------------|-----------------|-----------------|
G|-x-x-x-x-------|-3-3-3-3-3-3-2-2-|-3-3-3-3-3-3-5-5-|-2-2-2-2-2-2-2-2-|-0-0-0-0-0-0-2-2-|
D|-x-x-x-x-------|-5-5-5-5-5-5-5-5-|-5-5-5-5-5-5-5-5-|-3-3-3-3-3-3-3-3-|-1-1-1-1-1-1-3-3-|
A|-x-x-x-x-------|-----------------|-----------------|-----------------|-----------------|
E|-x-x-x-x-------|-----------------|-----------------|-----------------|-----------------|
   I've            done.       I'll  start   a----gain and whatever      pain        may 


   Gm          G     Gm          Gsus4 F                 D#          F    
e|-----------------|-----------------|-----------------|-----------------|
B|-----------------|-----------------|-----------------|-----------------|
G|-3-3-3-3-3-3-2-2-|-3-3-3-3-3-3-5-5-|-2-2-2-2-2-2-2-2-|-0-0-0-0-0-0-2-2-|
D|-5-5-5-5-5-5-5-5-|-5-5-5-5-5-5-5-5-|-3-3-3-3-3-3-3-3-|-1-1-1-1-1-1-3-3-|
A|-----------------|-----------------|-----------------|-----------------|
E|-----------------|-----------------|-----------------|-----------------|
   come,       to----day this     ends Iím     forgiving what        I've


e|-----------------|-----------------|-----------------|-----------------|
B|---3---3-4-3---3-|---3---3-4-3---3-|---3---3-4-3---3-|---3---3-4-3---3-|
G|-0---0-------0---|-0---0-------0---|-0---0-------0---|-0---0-------0---|
D|-----------------|-----------------|-----------------|-----------------|
A|-----------------|-1---------------|-----------------|-3---------------|
E|-1---------------|-----------------|-1---------------|-----------------|
   done.                               What    I've      done.

e|-----------------|-----------------|-----------------|-----------------|
B|---3---3-4-3---3-|---3---3-4-3---3-|---3---3-4-3---3-|---3---3-4-3---3-|
G|-0---0-------0---|-0---0-------0---|-0---0-------0---|-0---0-------0---|
D|-----------------|-----------------|-----------------|-----------------|
A|-----------------|-1---------------|-----------------|-3---------------|
E|-1---------------|-----------------|-1---------------|-----------------|
   Na  na  na     Na na  na  na     Na na  na  na     Na na  na  na

e|-----------------|-----------------|-----------------|-------|
B|---3---3-4-3---3-|---3---3-4-3---3-|---3---3-4-3---3-|---3---|
G|-0---0-------0---|-0---0-------0---|-0---0-------0---|-0---0-|
D|-----------------|-----------------|-----------------|-------|
A|-----------------|-1---------------|-----------------|-3-----|
E|-1---------------|-----------------|-1---------------|-------|
Na Na  na  na     Na na  na  na     Na na  na  na     Na na  na
Related for What Ive Done Acoustic tab