Song name
# A B C D E F G H I J K L M N O P Q R S T U V W X Y Z

Linkin Park - Qwerty Live tab

Linkin Park - Qwerty (live)
tuning - Drop D Half step down 
I love this song live more then the studio version. Personally I find it Heavyer!

D|------------------------|------------------------|
A|------------------------|------------------------|
F|------------------------|------------------------|
C|-0-1h-0-1h-0-0-7-3-2-2-1|-0-1h-0-1h-0-0-7-3-2-2-1|  x4
G|-0-1h-0-1h-0-0-7-3-2-2-1|-0-1h-0-1h-0-0-7-3-2-2-1|
C|-0-1h-0-1h-0-0-7-3-2-2-1|-0-1h-0-1h-0-0-7-3-2-2-1|

D|---------|
A|---------|
F|---------| x2
C|-0-0-0-0-|
G|-0-0-0-0-|
C|-0-0-0-0-|

Verse
D|---------------------------------|
A|---------------------------------|
F|---------------------------------|
C|---------------------------------|	
G|---------------------------------|
C|-0-12-13-0-12-13-0-12-13-0-12-13-|

D|---------------------------------------------|
A|---------------------------------------------|
F|---------------------------------------------|
C|---------------------------------------------|
G|---------------------------------------------|
C|-0-12-13-0-12-13-0-12-13-0-12-13-13-12-10-12-|

D|---------------------------------|
A|---------------------------------|
F|---------------------------------|
C|---------------------------------|
G|---------------------------------|
C|-0-12-13-0-12-13-0-12-13-0-12-13-|

D|---------------------------------------------|
A|---------------------------------------------|
F|---------------------------------------------|
C|---------------------------------------------|
G|---------------------------------------------|
C|-0-12-13-0-12-13-0-12-13-0-12-13-13-15-13-12-|

D|---------------------------------|
A|---------------------------------|
F|---------------------------------|
C|---------------------------------|	
G|---------------------------------|
C|-0-12-13-0-12-13-0-12-13-0-12-13-|

D|---------------------------------------------|
A|---------------------------------------------|
F|---------------------------------------------|
C|---------------------------------------------|
G|---------------------------------------------|
C|-0-12-13-0-12-13-0-12-13-0-12-13-13-12-10-12-|

D|---------------------------------|
A|---------------------------------|
F|---------------------------------|
C|---------------------------------|
G|---------------------------------|
C|-0-12-13-0-12-13-0-12-13-0-12-13-|

D|---------------------------------------------|
A|---------------------------------------------|
F|---------------------------------------------|
C|---------------------------------------------|
G|---------------------------------------------|
C|-0-12-13-0-12-13-0-12-13-0-12-13-13-15-13-12-|

D|---------------------------------|
A|---------------------------------|
F|---------------------------------|
C|---------------------------------|	
G|---------------------------------|
C|-0-12-13-0-12-13-0-12-13-0-12-13-|

D|---------------------------------------------|
A|---------------------------------------------|
F|---------------------------------------------|
C|---------------------------------------------|
G|---------------------------------------------|
C|-0-12-13-0-12-13-0-12-13-0-12-13-13-12-10-12-|

D|---------------------------------|
A|---------------------------------|
F|---------------------------------|
C|---------------------------------|
G|---------------------------------|
C|-0-12-13-0-12-13-0-12-13-0-12-13-|

D|---------------------------------------------|
A|---------------------------------------------|
F|---------------------------------------------|
C|---------------------------------------------|
G|---------------------------------------------|
C|-0-12-13-0-12-13-0-12-13-0-12-13-13-15-13-12-|


D|---------------------------------------|
A|---------------------------------------|
F|---------------------------------------|
C|-8~-----------------7~--------------10-|
G|-8~-----------------7~--------------10-|
C|-8~-----------------7~--------------10-|

D|---------------------------------|
A|---------------------------------|
F|---------------------------------|
C|---------------------------------|
G|---------------------------------|
C|-0-12-13-0-12-13-0-12-13-0-12-13-|

D|---------------------------------------------|
A|---------------------------------------------|
F|---------------------------------------------|
C|---------------------------------------------|
G|---------------------------------------------|
C|-0-12-13-0-12-13-0-12-13-0-12-13-13-15-13-12-|

D|---------------------------------------|
A|---------------------------------------|
F|---------------------------------------|
C|-8~-----------------7~--------------10-|
G|-8~-----------------7~--------------10-|
C|-8~-----------------7~--------------10-|

Chorus

D|------------------------------------------------|
A|------------------------------------------------|
F|---------------------------------------------5b-|
C|-0-12-0-7-3-5-0-12-0-8-7-0-12-7-3-5-0-12-0-7-x--|
G|-0-12-0-7-3-5-0-12-0-8-7-0-12-7-3-5-0-12-0-7-3b-|
C|-0-12-0-7-3-5-0-12-0-8-7-0-12-7-3-5-0-12-0-7----|


D|--------------------------------------|
A|--------------------------------------|
F|--------------------------------------|
C|-0-12-0-7-3-5-0-12-0-8-7-5-8-1-0-0-0-0|
G|-0-12-0-7-3-5-0-12-0-8-7-5-8-1-0-0-0-0|
C|-0-12-0-7-3-5-0-12-0-8-7-5-8-1-0-0-0-0|

D|---------------------------------|
A|---------------------------------|
F|---------------------------------|
C|---------------------------------|	
G|---------------------------------|
C|-0-12-13-0-12-13-0-12-13-0-12-13-|

D|---------------------------------------------|
A|---------------------------------------------|
F|---------------------------------------------|
C|---------------------------------------------|
G|---------------------------------------------|
C|-0-12-13-0-12-13-0-12-13-0-12-13-13-12-10-12-|

D|---------------------------------|
A|---------------------------------|
F|---------------------------------|
C|---------------------------------|
G|---------------------------------|
C|-0-12-13-0-12-13-0-12-13-0-12-13-|

D|---------------------------------------------|
A|---------------------------------------------|
F|---------------------------------------------|
C|---------------------------------------------|
G|---------------------------------------------|
C|-0-12-13-0-12-13-0-12-13-0-12-13-13-15-13-12-|

D|---------------------------------|
A|---------------------------------|
F|---------------------------------|
C|---------------------------------|
G|---------------------------------|
C|-0-12-13-0-12-13-0-12-13-0-12-13-|

D|---------------------------------|
A|---------------------------------|
F|---------------------------------|
C|---------------------------------|	
G|---------------------------------|
C|-0-12-13-0-12-13-0-12-13-0-12-13-|

D|---------------------------------------------|
A|---------------------------------------------|
F|---------------------------------------------|
C|---------------------------------------------|
G|---------------------------------------------|
C|-0-12-13-0-12-13-0-12-13-0-12-13-13-12-10-12-|

D|---------------------------------|
A|---------------------------------|
F|---------------------------------|
C|---------------------------------|
G|---------------------------------|
C|-0-12-13-0-12-13-0-12-13-0-12-13-|

D|---------------------------------------------|
A|---------------------------------------------|
F|---------------------------------------------|
C|---------------------------------------------|
G|---------------------------------------------|
C|-0-12-13-0-12-13-0-12-13-0-12-13-13-15-13-12-|

D|---------------------------------|
A|---------------------------------|
F|---------------------------------|
C|---------------------------------|
G|---------------------------------|
C|-0-12-13-0-12-13-0-12-13-0-12-13-|

D|------------------------------------------------|
A|------------------------------------------------|
F|---------------------------------------------5b-|
C|-0-12-0-7-3-5-0-12-0-8-7-0-12-7-3-5-0-12-0-7-x--|
G|-0-12-0-7-3-5-0-12-0-8-7-0-12-7-3-5-0-12-0-7-3b-|
C|-0-12-0-7-3-5-0-12-0-8-7-0-12-7-3-5-0-12-0-7----|


D|--------------------------------------|
A|--------------------------------------|
F|--------------------------------------|
C|-0-12-0-7-3-5-0-12-0-8-7-5-8-1-0-0-0-0|
G|-0-12-0-7-3-5-0-12-0-8-7-5-8-1-0-0-0-0|
C|-0-12-0-7-3-5-0-12-0-8-7-5-8-1-0-0-0-0|

D|------------------------|------------------------|
A|------------------------|------------------------|
F|------------------------|------------------------| x4
C|-0-1h-0-1h-0-0-7-3-2-2-1|-0-1h-0-1h-0-0-7-3-2-2-1|
G|-0-1h-0-1h-0-0-7-3-2-2-1|-0-1h-0-1h-0-0-7-3-2-2-1| 
C|-0-1h-0-1h-0-0-7-3-2-2-1|-0-1h-0-1h-0-0-7-3-2-2-1|

D|---------------------------------------|
A|---------------------------------------|
F|---------------------------------------|
C|-8~-----------------7~--------------10-|
G|-8~-----------------7~--------------10-|
C|-8~-----------------7~--------------10-|

D|------------------------|------------------------|
A|------------------------|------------------------|
F|------------------------|------------------------|
C|-0-1h-0-1h-0-0-7-3-2-2-1|-0-1h-0-1h-0-0-7-3-2-2-1|
G|-0-1h-0-1h-0-0-7-3-2-2-1|-0-1h-0-1h-0-0-7-3-2-2-1| 
C|-0-1h-0-1h-0-0-7-3-2-2-1|-0-1h-0-1h-0-0-7-3-2-2-1|

D|---------------------------------------|
A|---------------------------------------|
F|---------------------------------------|
C|-8~-----------------7~--------------10-|
G|-8~-----------------7~--------------10-|
C|-8~-----------------7~--------------10-|

D|---------------------------------------|
A|---------------------------------------|
F|------------------------------------5b-|
C|-0~---------------0~----------------x--|
G|-0~---------------0~----------------3b-|
C|-0~---------------0~-------------------|

D|------------------------------------------------|
A|------------------------------------------------|
F|---------------------------------------------5b-|
C|-0-12-0-7-3-5-0-12-0-8-7-0-12-7-3-5-0-12-0-7-x--|
G|-0-12-0-7-3-5-0-12-0-8-7-0-12-7-3-5-0-12-0-7-3b-|
C|-0-12-0-7-3-5-0-12-0-8-7-0-12-7-3-5-0-12-0-7----|


D|-------------------------------|
A|-------------------------------|
F|-------------------------------|
C|-0-12-0-7-3-5-0-12-0-8-7-5-8-1-|
G|-0-12-0-7-3-5-0-12-0-8-7-5-8-1-|
C|-0-12-0-7-3-5-0-12-0-8-7-5-8-1-|

D|---------------------------------|
A|---------------------------------|
F|---------------------------------|
C|-0-0-0-0-0-0-0-0-0-0-0-0-0-0-0-0-|
G|-0-0-0-0-0-0-0-0-0-0-0-0-0-0-0-0-|
C|-0-0-0-0-0-0-0-0-0-0-0-0-0-0-0-0-|

any questoions or fix's I can make e-mail me at jchandler-guitars@hotmail.com
Tap to rate this tab
# A B C D E F G H I J K L M N O P Q R S T U V W X Y Z