Song name
# A B C D E F G H I J K L M N O P Q R S T U V W X Y Z

Linkin Park - Part Of Me tab

Part Of Me
Tuning: Dropped D one half step down
C# G# C# F# A# D#

x|-----------------------------|x
x|-----------------------------|x
x|-----------------------------|x
x|-----------------------------|x
x|-----------7-7-----7777--7---|x
x|-6-6--6-6------6-6-----------|x

Verse
x|---------------------8---8------------------------------------------------|x
x|-10--10--10--10--------------8---8---10--10--10--10--12--12---8--8--------|x
x|----9---9---9---9/10--10--10--10--9-----9---9---9---9---9---9---9--9------|x
x|--------------------------------------------------------------------------|x
x|--------------------------------------------------------------------------|x
x|--------------------------------------------------------------------------|x

Pre-chorus
x|--------------------------------------------------------------------------|x
x|--------------------------------------------------------------------------|x
x|--------------------------------------------------------------------------|x
x|-3-2--3-2--3-2--3-2-22-3--5-----------------------------------------------|x
x|-3-2--3-2--3-2--3-2-22-3--5-----------------------------------------------|x
x|-3-2--3-2--3-2--3-2-22-3--5-----------------------------------------------|x

chorus

x|-------------------------------------------------------------------------|x
x|-------------------------------------------------------------------------|x
x|------------10-10-----10-10-1010-----------------------------------------|x
x|--7-7--7-7--10-10-7-7-10-10-1010--7-7-5-5-5---5---8----------------------|x
x|--7-7--7-7--8--8--7-7-8--8--88----7-7-5-5-5---5---8----------------------|x
x|--7-7--7-7--------7-7-------------7-7-5-5-5---5---8----------------------|x
Tap to rate this tab
 
# A B C D E F G H I J K L M N O P Q R S T U V W X Y Z