Song name
# A B C D E F G H I J K L M N O P Q R S T U V W X Y Z

Linkin Park - Session tab

-------------------------------------------------------------------------------
			     Session - Linkin Park
-------------------------------------------------------------------------------
Tabbed by:Adarsh
Email:Adarshsekhar1991@yahoo.co.uk
This is the 12th track of Meteora and Linkin Park's best instrumental
Tuning:Standard(At least I tabbed it in standard)
  
Intro Slide through notes in this riff
e|----------------------------------------------------------|
B|---6----------7------4------------6----------7---------4--|
G|----------------------------------------------------------|
D|----------------------------------------------------------|
A|----------------------------------------------------------|
E|----------------------------------------------------------|
    Play Intro till both guitars play

 
e|----------------------------------------------------------|
B|----------------------------------------------------------|
G|------------5---------------------------------------------|Play twice
D|----7-7-7-8-----7-----8-8-8-10-11---8---------------------|
A|----------------------------------------------------------|
E|----------------------------------------------------------|
   
e|--------11---------13---------11--------13----------------|
B|---13-13------13-13------13-13-----13-13------------------|
G|----------------------------------------------------------|
D|----------------------------------------------------------|Play twice
A|----------------------------------------------------------|
E|----------------------------------------------------------|
   Guitar 1 Plays :
e|----------------------------------------------------------|
B|----------------------------------------------------------|
G|------------5---------------------------------------------|
D|----7-7-7-8-----7-----8-8-8-10-11---8---------------------|
A|----------------------------------------------------------|
E|----------------------------------------------------------|
   Guitar 2 Plays :
e|--------11---------13---------11--------13----------------|
B|---13-13------13-13------13-13-----13-13------------------|
G|----------------------------------------------------------|
D|----------------------------------------------------------|
A|----------------------------------------------------------|
E|----------------------------------------------------------|
Play Till End
This is my first tab, please rate

| /  slide up
| \  slide down
| h  hammer-on
| p  pull-off
| ~  vibrato
| +  harmonic
| x  Mute note
=============================================================================
Tap to rate this tab
# A B C D E F G H I J K L M N O P Q R S T U V W X Y Z