Song name
# A B C D E F G H I J K L M N O P Q R S T U V W X Y Z

Linkin Park - Wish tab

-----------------------------------------------------------------------------
			     Wish - Linkin Park
-----------------------------------------------------------------------------
Tabbed by: IbanezRG321MH
Email: HpGaNgZtEr206@aol.com

Tuning: Guitar 1: EADGBe (Mike Shinoda)
        Guitar 2: DADGBe (Brad Delson)

     O.K. so i noticed that the wish tab on here was alright but, i kno the correct way
Park plays it. I'am in the LPU and got the LPU 0.4 cd and i also got the Rock at AM Ring
and watch Linkin Park play "Wish" there also. Brad Delson (Lead guitarist) has his
in Drop D but Mike Shinoda (Vocals, Guitar, Keyboard etc...) has his in standard EADGBe
I recommend anyone who wants should download this song or try to get your hands on the
at AM Ring dvd because this song is an AMAZING cover of the Nine Inch Nails and is good
a cd but even better watching it live. I hope you enjoy it, and if you have any comments 
questions e-mail me any time.

   Intro.
     (Drums and DJ)

   Verse 1(Guitar 1 Mike Shinoda)
     "This is the first day of my last days..."
e|-----------------------------------------|
B|-----------------------------------------|
G|-----------------------------------------|
D|--7-7-7-8-7-5--7-7-7-8-7-----------------| x5
A|--5-5-5-6-5-3--5-5-5-6-5-----------------|
E|-----------------------------------------|

   Verse 1(Guitar 2 Brad Delson)
     "This is the first day of my last days..."
e|-----------------------------------------|
B|-----------------------------------------|
G|-----------------------------------------|
D|--2-2-2-3-2-0--2-2-2-3-2-----------------| x5
A|--2-2-2-3-2-0--2-2-2-3-2-----------------|
D|--2-2-2-3-2-0--2-2-2-3-2-----------------|


   Chours (Guitar 1 Mike Shinoda)
     "wish there was something real wish there was something true..."
e|-----------------------------------------|
B|-----------------------------------------|
G|-10-5------------------------------------|
D|-10-5--7-7-7-8-7-5--7-7-7-8-7------------|
A|-8--3--5-5-5-6-5-3--5-5-5-6-5------------|
E|-----------------------------------------|

e|-------------------------------------------------------|
B|-------------------------------------------------------|
G|-10-5--------------------------------------------------|
D|-10-5--7-7-7-8-7-5--7-7-7-8-7---7-7-7-8-7-5--7-7-7-8-7-|
A|-8--3--5-5-5-6-5-3--5-5-5-6-5---7-7-7-8-7-5--7-7-7-8-7-|
E|-------------------------------------------------------|

   Chours (Guitar 2 Brad Delson)
     "wish there was something real wish there was something true..."
e|-----------------------------------------|
B|-----------------------------------------|
G|-----------------------------------------|
D|-5-0--2-2-2-3-2-0-2-2-2-3-2--------------|
A|-5-0--2-2-2-3-2-0-2-2-2-3-2--------------|
D|-5-0--2-2-2-3-2-0-2-2-2-3-2--------------|

e|---------------------------------------------------|
B|---------------------------------------------------|
G|---------------------------------------------------|
D|-5-0--2-2-2-3-2-0-2-2-2-3-2--2-2-2-3-2-0-2-2-2-3-2-|
A|-5-0--2-2-2-3-2-0-2-2-2-3-2--2-2-2-3-2-0-2-2-2-3-2-|
D|-5-0--2-2-2-3-2-0-2-2-2-3-2--2-2-2-3-2-0-2-2-2-3-2-|

   Verse 2(Guitar 1 Mike Shinoda)
     "i'm the one without a soul, i'm the one with this big f***ing hole..."
e|-----------------------------------------|
B|-----------------------------------------|
G|-----------------------------------------|
D|--7-7-7-8-7-5--7-7-7-8-7-----------------| x5
A|--5-5-5-6-5-3--5-5-5-6-5-----------------|
E|-----------------------------------------|

   Verse 2(Guitar 2 Brad Delson)
     "i'm the one without a soul, i'm the one with this big f***ing hole..."
e|-----------------------------------------|
B|-----------------------------------------|
G|-----------------------------------------|
D|--2-2-2-3-2-0--2-2-2-3-2-----------------| x5
A|--2-2-2-3-2-0--2-2-2-3-2-----------------|
D|--2-2-2-3-2-0--2-2-2-3-2-----------------|

   Bridge
     (DJ and Drums)
   [Guitar is played after sound effects are finished]


     (Guitar 1 Mike Shinoda)
e|-----------------------------------------|
B|-----------------------------------------|
G|-----------------------------------------|
D|--7-7-7-8-7-5--7-7-7-8-7-----------------| x5
A|--5-5-5-6-5-3--5-5-5-6-5-----------------|
E|-----------------------------------------|

     (Guitar 2 Brad Delson)
e|-----------------------------------------|
B|-----------------------------------------|
G|-----------------------------------------|
D|--2-2-2-3-2-0--2-2-2-3-2-----------------| x5
A|--2-2-2-3-2-0--2-2-2-3-2-----------------|
D|--2-2-2-3-2-0--2-2-2-3-2-----------------|

   Chours/Outro (Guitar 1 Mike Shinoda)
     "wish there was something real wish there was something true..."
e|-----------------------------------------|
B|-----------------------------------------|
G|-10-5------------------------------------|
D|-10-5--7-7-7-8-7-5--7-7-7-8-7------------|
A|-8--3--5-5-5-6-5-3--5-5-5-6-5------------|
E|-----------------------------------------|

e|---------------------------------------------------------------------|
B|---------------------------------------------------------------------|
G|-10-5----------------------------------------------------------------|
D|-10-5--7-7-7-8-7-5--7-7-7-8-x-x-x-x---7-7-7-8-7-5--7-7-7-8-7-x-x-x-x-|
A|-8--3--5-5-5-6-5-3--5-5-5-6-x-x-x-x---7-7-7-8-7-5--7-7-7-8-7-x-x-x-x-|
E|----------------------------x-x-x-x--------------------------x-x-x-x-|

e|---------------------------------------------------------------------|
B|---------------------------------------------------------------------|
G|-10-5----------------------------------------------------------------|
D|-10-5--7-7-7-8-7-5--7-7-7-8-x-x-x-x---7-7-7-8-7-5--7-7-7-8-7-x-x-x-x-|
A|-8--3--5-5-5-6-5-3--5-5-5-6-x-x-x-x---7-7-7-8-7-5--7-7-7-8-7-x-x-x-x-|
E|----------------------------x-x-x-x--------------------------x-x-x-x-|

e|-----------------------------------------|
B|-----------------------------------------|
G|-----------------------------------------|
D|--7-7-7-8-7-5--7-7-7-8-7-10-9-8-7--------| x2
A|--5-5-5-6-5-3--5-5-5-6-5--8-7-6-5--------|
E|-----------------------------------------|
   Chours/Outro (Guitar 2 Brad Delson)
     "wish there was something real wish there was something true..."
e|-----------------------------------------|
B|-----------------------------------------|
G|-----------------------------------------|
D|-5-0--2-2-2-3-2-0-2-2-2-3-2--------------|
A|-5-0--2-2-2-3-2-0-2-2-2-3-2--------------|
D|-5-0--2-2-2-3-2-0-2-2-2-3-2--------------|

e|---------------------------------------------------------------|
B|---------------------------------------------------------------|
G|---------------------------------------------------------------|
D|-5-0--2-2-2-3-2-0-2-2-2-3-x-x-x-x--2-2-2-3-2-0-2-2-2-3-x-x-x-x-|
A|-5-0--2-2-2-3-2-0-2-2-2-3-x-x-x-x--2-2-2-3-2-0-2-2-2-3-x-x-x-x-|
D|-5-0--2-2-2-3-2-0-2-2-2-3-x-x-x-x--2-2-2-3-2-0-2-2-2-3-x-x-x-x-|

e|------------------------------------------------------------------|
B|------------------------------------------------------------------|
G|------------------------------------------------------------------|
D|-2-2-2-3-2-0-2-2-2-3-x-x-x-x--2-2-2-3-2-0-2-2-2-3-x-x-x-x-5-4-3-2-|x2
A|-2-2-2-3-2-0-2-2-2-3-x-x-x-x--2-2-2-3-2-0-2-2-2-3-x-x-x-x-5-4-3-2-|
D|-2-2-2-3-2-0-2-2-2-3-x-x-x-x--2-2-2-3-2-0-2-2-2-3-x-x-x-x-5-4-3-2-|
Tap to rate this tab
# A B C D E F G H I J K L M N O P Q R S T U V W X Y Z