Guitaretab - guitar tabs
Song name
# A B C D E F G H I J K L M N O P Q R S T U V W X Y Z

Linkin Park - Minutes To Midnight tab

Linkin Park
Minutes To Midnight


LP songs are relatively easy to play but pretty hard to tab;
so comwmnt me if you have corrections.


By the way, for those who don't know and are using chromatic tuners to play these songs,
Db  Ab, Db, Gb, Bb, Eb tuning is exactly the same as:
C#, G#, C#, F#, A#, D#.


/= slide up
\= slide down
x= mute note
*= harmonic
h= hammer on
b=bend
PM=Palm mute all
p=Pull off
~=Vibrate


1.Wake
E|------------------------------------------|
B|------------------------------------------|
G|-12----14----16----16b----12----14----12--|
D|--x-----x-----x-----x------x-----x-----x--|
A|-10----12----14----14b----10----12----10--|
D|------------------------------------------|
 x12   x12    x18   x6     x12   x12   x48

2.Given up

-Intro- (First Time, One Guitar. Second Time, Both Guitars)
E--xx-xx-xxx-xx---xx-xx-xxx-xx---xx-xx-xxx-xx---xx-xx-xx--xx--------|
B--xx-xx-xxx-xx---xx-xx-xxx-xx---xx-xx-xxx-xx---xx-xx-xx--xx--------|
G--xx-xx-xxx-xx---xx-xx-xxx-xx---xx-xx-xxx-xx---xx-xx-xx--xx--------|
D-2xx-xx-xxx-xx3-2xx-xx-xxx-xx3-2xx-xx-xxx-xx3-2xx-xx-xx8-xx3-------|
A-2xx-xx-xxx-xx3-2xx-xx-xxx-xx3-2xx-xx-xxx-xx3-2xx-xx-xx8-xx3-------|
D-2xx-xx-xxx-xx3-2xx-xx-xxx-xx3-2xx-xx-xxx-xx3-2xx-xx-xx8-xx3-------| x2

-Chorus-(1)
E----------------------------------------------------------------------------|
B---------------------------|    THEN:E--------------------------------------|
G---------------------------|         B--------------------------------------|
D-22222--55555--00000--77777|         G--------------------------------------|
A-22222--55555--00000--77777|         D-22222-55555-0000000000-77777---------|
D-22222--55555--00000--77777|  X3     A-22222-55555-0000000000-77777-xx8-x---|x3
                                      D-22222-55555-0000000000-77777-xx8-x---|x3

repeat verse (no guitar)
repeat chorus(2)

this time for this chorus do:

E-----|
B-----|
G-----|
D-xxxx|
A-xxxx|
D-xxxx|

-Bridge-

E---------------------------------------------------------------|
B---------------------------------------------------------------|
G------------------2b-----------------------2b------------------|
D--------------------------01204306501202---------01204306501202|
A--------------------------01204306501202---------01204306501202|   x2
D-01204306501202-----------01204306501202---------01204306501202|


Then:

E-----------|
B-----------|
G-----------|
D-0701204321
A-0701204321
D-0701204321

-Intro again-
E--xx-xx-xxx-xx--|
B--xx-xx-xxx-xx--|
G--xx-xx-xxx-xx--|
D-2xx-xx-xxx-xx3-|
A-2xx-xx-xxx-xx3-|
D-2xx-xx-xxx-xx3-| x5


REPEAT CHORUS (1)

3.Leave out all the rest (Standard tuning)

Verse:

E--8---8----8-----8----12---12---12---12------12---12----12----12----|
B---10---10----10---10----10---10---10----10-----13---13----13-----13|
G--------------------------------------------------------------------|
D--------------------------------------------------------------------|
A--------------------------------------------------------------------|
E--------------------------------------------------------------------|

Verse (contin)

E--10---10----10----10-------|
B----10-----10----10-----10--|
G----------------------------|
D----------------------------|
A----------------------------|
E----------------------------|

CHORUS:

E--------3---------------------0|
B-1------1------1--------------1|
G-2------0------2--------------2|
D-2------2------3--------------0|
A-0------3------3---------------|
E-------------------------------|

Break Down:


E--------0------------0-------------------0|
B-1------1------1-----1----------1--------3|
G-2------0------2-----0----------2--------2|
D-2------2------2-----2----------2--------0|
A-0------3------0-----3----------0---------|
E------------------------------------------|


4.Bleed it out (Drop D tuning)

Intro:

e|-9------9------9----9-9-9----9----9-9--7-------7-------7-----7-7-7-7-5555|
B|---7-7----7-7----7---------7----7---------7-7-----7-7-----7--------------|
G|-------------------------------------------------------------------------|
D|-------------------------------------------------------------------------|
A|-------------------------------------------------------------------------|
D|-------------------------------------------------------------------------|

       repeat x3 ^

e|--------------------------------------9-------9-----9-----9-9-9---9---9-9|
B|--7-7-7-7------7-7--9-9-9-9-----9-9------7-7----7-7---7---------7---7----|
G|-----------7-7--------------9-9------------------------------------------|
D|-------------------------------------------------------------------------|
A|-------------------------------------------------------------------------|
D|-------------------------------------------------------------------------|


e|----------------------------------------7-------7------7---7-7-7-7-5-5-55|
B|--7-7-7-7------7-7--9-9-9-9-----9-9--------7-7----7-7----7---------------|
G|-----------7-7--------------9-9------------------------------------------|
D|-------------------------------------------------------------------------|
A|-------------------------------------------------------------------------|
D|-------------------------------------------------------------------------|

Chorus:

Guitar 1:
repeat intro ONLY the x3  one


Guitar 2:

E|--------------------------------------|
B|77777777b8888r7777-55555555-55553333--|
G|66666666b7777r6666-44444444-44442222--|X2
D|44444444-4444-4444-22222222-22220000--|
A|--------------------------------------|
D|--------------------------------------|


Brige:


e|--------------------|
b|--------------------|
g|--------------------|
d|0000-2222-0000-2222-|
a|0000-2222-0000-2222-|    hit these notes slowly
D|0000-2222-0000-2222-|

Then:

E|----------------|
B|----------------|
G|----------------|
D|0000-002222-22--|
A|0000-002222-22--|
D|0000-002222-22--|

Repeat Chorus


Outro:
E|---------------------------------------------------------------|
B|---------------------------------------------------------------|
G|-11-11-11-11-13-13-13-13-14-14-14-14-18-18-18-18-16-16-16-16---|
D|-x--x--x--x--x--x--x--x--x--x--x--x--x--x--x--x--x--x--x--x----|
A|-9--9--9--9--11-11-11-11-12-12-12-12-16-16-16-16-14-14-14-14---|
D|---------------------------------------------------------------|


E|--------------------------------|                 ---------|
B|--------------------------------|     after 2nd   ---------|
G|13-13-13-13-14-14-14-14-6-6-6-6-|X2   time end    -11~-----|
D|x--x--x--x--x--x--x--x--x-x-x-x-|     on this     -x-------|
A|11-11-11-11-12-12-12-12-4-4-4-4-|                 -9~------|
D|--------------------------------|                 ---------|

5.Shadow of the day (Half step down tuning or Drop D)


You know..... some people argue that there is a "quiet" guitar played b4 the solo and some
say there isn't...or they can't hear it....so...... if you watch them live or talk to them
figure it out. And, some people say its half step tuning...and other say its Drop D 
me....i use both sometimes....but it says better in Drop D...lol...so play it how ever
you want to...or wut ever sounds better to you!

;)


Quiet guitar:56 SECONDS
Eb---------------------------------------------|
Bb---------------------------------------------|
Gb---------------------------------------------|
Db---------------------------------------------|  x2
Ab-22222222--44444444--------------------------|
Db---------------------44444444--00000--222----|

PM..........................................

Eb-------------------------------------------------|
Bb-------------------------------------------------|
Gb-------------------------------------------------|
Db-------------------------------------------------|  x2
Ab-22222222----------------------------------------|
Db----------22222222-----------44444444--00000--222|


PM............................................


Guitar 1 Solo:2:49

Eb|-------|---------------------------------|
Bb|---5---|-7---7---7---7---7---5---4---5---|
Gb|-4---4-|---4---4---4---4---4---4---4---4-|
Db|-------|---------------------------------|
Ab|-------|---------------------------------|
Db|-------|---------------------------------| x3


then:

Eb|--------------------------------------|
Bb|-5---5----5---4---4---4---4---4---4---|
Gb|---4---4----4---4---4---4---4---4---4-|
Db|--------------------------------------|
Ab|--------------------------------------|
Db|--------------------------------------|


Repeat the first riff 4 times!

Guitar 2 Solo comes in (3:24-4:00) :Guitar 1 is played behind the one

Eb|----12----|-14----14----14----14----14----12----11----12----|
Bb|-12----12-|----12----12----12----12----12----12----12----12-|
Gb|----------|-------------------------------------------------|
Db|----------|-------------------------------------------------|
Ab|----------|-------------------------------------------------|
Db|----------|-------------------------------------------------| x8


Guitar 1:

eb|---------------------------------------|
Bb|---------------------------------------|
Gb|-44444444------------------------------|
Db|-44444444-44444444-66666666-22222444---|
Ab|-22222222-44444444-66666666-22222444---|
Db|----------22222222-44444444-00000222---|

End song on:bending and then virbarte and just slide up
Eb|-11b~/--------|
Bb|--------------|
Gb|--------------|
Db|--------------|
Ab|--------------|
Db|--------------|

6.What I've done(Drop D tuning)


The Intro chorus do:

E------|
B------|
G------|
D--xx--|
A--xx--|
D--xx--|

Then the next chorus:and the one after that ;)

E--------|
B--------|
G--------|
D--xxxx--|
A--xxxx--|
D--xxxx--|


CHORUS(1)

E|-------------------------|-------------------------|
B|-------------------------|-------------------------|
G|-------------------------|-------------------------|
D|-------------------------|-------------------------|
A|-13-13-13-13-13-13-12-12-|-13-13-13-13-13-13-15-15-|
D|-------------------------|-------------------------|

E|-------------------------|-------------------------|            |-------|
B|-------------------------|-------------------------|   Repeat   |-------|
G|-------------------------|-------------------------|   & then   |-------|
D|-------------------------|-------------------------|   end on:  |-------|
A|-12-12-12-12-12-12-12-12-|-10-10-10-10-10-10-12-12-|            |-13----|
D|-------------------------|-------------------------|            |-------|

--BACKING CHORDS--

E|------|------|------|------|
B|------|------|------|------|
G|-7----|-10---|-5----|-12---|
D|-5----|-8----|-3----|-10---|   * play each chord 8x
A|-5----|-8----|-3----|-10---|
D|-5----|-8----|-3----|-10---|


BRIDGE (Part 1 - Solo)

Guitar 1
E|--------------------------------------|
B|--------------------------------------|
G|----------------------------12--15----|
D|-12-15-12-15p12-15p12-15p12-----------|
A|--------------------------------------|
D|--------------------------------------|
                                                     x2
E|-------------------------------------------|
B|-------------------------------------------|
G|----------------------------12--14--12-----|
D|-12-15-12-15p12-15p12-15p12-------------15-|
A|-------------------------------------------|
D|-------------------------------------------|

E|--------------------------|
B|--------------------------|
G|-12--15-------------12----|
D|-------12--15--12---------|
A|--------------------------|
D|--------------------------|


Bridge (when solo is finishing)


(Mike's Part)
E------------------|
B------------------|
G-7----10---5------|
D-5----8----3-----5|      * each chord x8
A-----------------3|
D------------------|




7.Hands held high

No Guitar


8.No More Sorrow (Half step down tuning)


Intro
Eb|--------------------------------|
Bb|-4----6-7---11---9---11-12---11-|
Gb|--------------------------------|
Db|--------------------------------|
Ab|--------------------------------|
Db|--------------------------------|


Eb:-----------------------------------|
Bb:-----------------------------------|
Gb:-----------------------------------|
Db:-----------------------------------|
Ab:-2-2-2-2-2-2-----------------------|
Db:-2-2-2-2-2-2-----------------------|
    --pm------------------------------|


Eb:-------------------------------------------|
Bb:-------------------------------------------|
Gb:-------------------------------------------|
Db:-------------------------------------------|
Ab:-2-2-2-2-2-2--2-2-2-2--2-2-2-2-2-2-2-2-2-2-|
Db:-2-2-2-2-2-2--2-2-2-2--2-2-2-2-2-2-2-2-2-2-|
    --pm------- --pm---  --pm--------pm-------|


Chorus"(Both Guitars)


Eb:-----------------------------------|
Bb:-----------------------------------|
Gb:-----------------------------------|
Db:-10-----9-----2--------------------| Repeat 3 times
Ab:-10-x4--9-x4--2-x8-----------------|
Db:-10-----9-----2--------------------|

then

Eb:----------------------------------|
Bb:----------------------------------|
Gb:----------------------------------|
Db:-5------9-----2-------------------|
Ab:-5-x8---9-x4--2-x4----------------|
Db:-5------9-----2-------------------|

Bridge:

02:23 - 02:41

Eb:-----------------------------------|
Bb:-----------------------------------|
Gb:-----------------------------------|
Db:-1-2-1-4-3-1-2-6-------------------|
Ab:-1-2-1-4-3-1-2-6-------------------|
Db:-1-2-1-4-3-1-2-6-------------------|

*Just listen to the song to know what to play and when ;)

9.Valentines Day (Half step down tuning)


Eb|--------------------------------------------5---------------------|
Bb|---6---8---10---8---6---8---6---6---6---8-------8---6---8---6---6-|
Gb|-7---7---7----7---7---7---7---7---5---5---5---5---5---5---5---5---|
Db|------------------------------------------------------------------|
Ab|------------------------------------------------------------------|
Db|------------------------------------------------------------------|

     1:26    and repeat at 2:06

Eb|--------------------------------------------------------------------|
Bb|--------------------------------------------------------------------|
Gb|--------------------------------------------------------------------|
Db|--------------------------------------------------------------------|
Ab|-1-1-1-1-1-1-1-1-3-3-3-3-3-3-3-3--------------------3-3-3-3-3-3-3-3-|
Db|-----------------------------------3-3-3-3-3-3-3-3------------------|
[ Tab from: http://www.guitaretab.com/l/linkin-park/156170.html ]
Outro:2:19
Eb|-----------------------------------------------------------------|
Bb|-----------------------------------------------------------------|
Gb|-7-7-7-7-7-7-7-7-7-7-7-7-7-7-7-7-----------------5-5-5-5-5-5-5-5-|
Db|-7-7-7-7-7-7-7-7-7-7-7-7-7-7-7-7-3-3-3-3-3-3-3-3-5-5-5-5-5-5-5-5-|
Ab|-5-5-5-5-5-5-5-5-5-5-5-5-5-5-5-5-3-3-3-3-3-3-3-3-3-3-3-3-3-3-3-3-|
Db|---------------------------------1-1-1-1-1-1-1-1-----------------|

10.In Between (Sure you can play guitar in this one ;)

Chorus
|-13-------------------|
|------14-----------16-|
|-----------13---------|
|----------------------|
|----------------------|
|----------------------|
Bridge (repeat as many times )
|-14---13-----------|
|-----------16------|
|----------------16-|
|-------------------|
|-------------------|
|-------------------| x2

|-13-------------------|
|------14-----------16-|
|-----------13---------|
|----------------------|
|----------------------|
|----------------------|


11.In Pieces ( Drop D tuning)

No Gutiar until 2nd verse

E|6-4-4-6--4-4-4-6--4-4-4-4--4-4-3-3---------------------------------------|
B|6-6-6-6--6-6-6-6--6-6-6-6--6-6-5-5---------------------------------------|
G|-------------------------------------------------------------------------|
D|-------------------------------------------------------------------------|
A|-------------------------------------------------------------------------|
D|-------------------------------------------------------------------------|


Verse 2

Gtr 1
e|6-4-4-6--4-4-4-6--4-4-4-4--4-4-3-3----|
b|6-6-6-6--6-6-6-6--6-6-6-6--6-6-5-5----|
g|--------------------------------------|X2
d|--------------------------------------|
a|--------------------------------------|
D|--------------------------------------|


Pre Chorus

Gtr 1
E|4-6-4-4--4-6-4-4--4-6-4-4--6-4-3-3--|
B|6-6-6-6--6-6-6-6--6-6-6-6--6-6-5-5--|
G|------------------------------------|
D|------------------------------------|
A|------------------------------------|
D|------------------------------------|

1st Chorus

Gtr 1
e|8-9-11-11--8-9-11-11--8-8-8-8--6-6-6-6--|
b|9-9-9--9---9-9-9--9---9-9-9-9--8-8-8-8--|
g|----------------------------------------|X2
d|----------------------------------------|
a|----------------------------------------|
D|----------------------------------------|

*Solo:
e----------|---------------------------|
b--8-9p-6-8| * repeatx6then:---8-------|
g----------|---------------------8-5---|
d----------|---------------------------|
a--------------------------------------|*do this section x3this whole thing
d--------------------------------------|


*You'll figure it out lol... ;)
then:

e--------------------------------------|
b--9-9-9-9-9-9-9-9-9--8-8-8-8-8-8-8-8-8|
g--------------------------------------|
d--------------------------------------|
a--------------------------------------|
d--------------------------------------|


e-----------|------------------------------8--8--9--8----8|
b--8-9p--6-8|--------------------8--9--11-------------11--|*x2 whole section
g-----------|  <* Repeat x4 then 
d-----------|
a-----------|
d-----------|




e-------------------------------------------------------------------------|
b-----------11--11--13--11-----11----13--------------13--13-14-13----13-14|
g--10--12-13----------------13-----------12--13---15--------------15------|
d-------------------------------------------------------------------------|
a-------------------------------------------------------------------------|
d-------------------------------------------------------------------------|


e-----------------------------------------------------------------------|
b-13-14-13-----13--14-13----13--14--13----13-14-13--13-13-13-13-13-13-13|
g-----------15-----------15--------------15-------15--------------------|
d-----------------------------------------------------------------------|
a-----------------------------------------------------------------------|
d-----------------------------------------------------------------------|





After solo:
E|--------------------------------------------------------------------|
B|--------------------------------------------------------------------|
G|3333333333333333-6666666666666666-----------------------------------|X2
D|3333333333333333-6666666666666666-666666666666666-1111111111111111--|
A|1111111111111111-4444444444444444-666666666666666-1111111111111111--|
D|----------------------------------666666666666666-1111111111111111--|

End:

Gtr 1
E|8-9-11-11--8-9-11-11--8-8-8-8--6-6-6-6--|
B|9-9-9--9---9-9-9--9---9-9-9-9--8-8-8-8--|
G|----------------------------------------|X2
D|----------------------------------------|
A|----------------------------------------|
D|----------------------------------------|

12.The Little things Give You Away

Intro/verse (strum lightly), acoustic guitar (gtr 1)
|----------------------------------------------------------------|
|----------------------------------------------------------------|
|-5-5-5-5-5-5-5-5-5-5-4-2----------------------------------------|
|-2-2-2-2-2-2-22-2-2-2-24--4--4--4-5-5--5-5-5-4-4--4-4-4-2-2---|
|-0-0-0-0-0-0-0-0-0-0-0-0-0--0--0--0-0-0--0-0-0-0-0--0-0-0-0-0---|
|-------------------------0-0--0--0-0-0--0-0-0-0-0--0-0-0-0-0---| x4


Pre-chorus
|----------------------------------------------------------------------|
|----------------------------------------------------------------------|
|----------------------------------------------------------------------|
|-12-12-12-12-12-12-9-9-9-9-9-9-4-4-4--4-5-5--5-5-5-4-4--4-4-4-2-2---|
|-10-10-10-10-10-10-7-7-7-7-7-7-0--0--0--0-0-0--0-0-0-0-0--0-0-0-0-0---|
|-10-10-10-10-10-10-7-7-7-7-7-7-0--0--0--0-0-0--0-0-0-0-0--0-0-0-0-0---|

|-----------------------|
|-----------------------|
|-----------------------|
|-12-12-12-12-12-12-4~--|
|-10-10-10-10-10-10-0~--|
|-10-10-10-10-10-10-0~--|

Chorus 1
|-------------------------|
|-------------------------|
|-------------------------|
|-7-7-7-5-5-5-0-0-0-2-2-2-|
|-7-7-7-5-5-5-0-0-0-2-2-2-|
|-7-7-7-5-5-5-0-0-0-2-2-2-| x2

|---------------------------------------------------|
|---------------------------------------------------|
|---------------------------------------------------|
|-7-7-7-5-5-5-1010-10-00-0-3-3-3-3-3-3-5-5-5-5~---|
|-7-7-7-5-5-5-10-10-10-0-0-0-3-3-3-3-3-3-5-5-5-5~---|
|-7-7-7-5-5-5-10-10-10-0-0-0-3-3-3-3-3-3-5-5-5-5~---|
Repeat Verse, guitar 2 plays this in second pre-chorus:


E----------------------------------------------------------------------------|
B----------------------------------------------------------------------------|
G-9-9-9-9-9-9-9-9-9-9-9--12-12-11-11-11-11-11-12-12--12-12-12-1111-11-11-9-7-|
D-xxxxxxxxxxxxxxxxxxxxxxxxxxxxxxxxxxxxxxxxxxxxxxxxxxxxxxxxxxxxxxxxxxxxxxxxxx
A-7-7-7-7-7-7-7-7-7-7-7--10--10-9--9-9-9--9--10--10--10--10-10-9-9--9--9-7-7-|
D----------------------------------------------------------------------------|

|---------------------------|
|---------------------------|
|-9-9-9-9-9-9-9-9-9-9-9-9-9-|
|-x-x-x-x-x-x-x-x-x-x-xx-x-|
|-7-7-7-7-7-7-7-7-7-7-7-7-7-|
|---------------------------|

Repeat Chorus 1, except with this variation on last bar:
|----------------------------------------------------|
|----------------------------------------------------|
|----------------------------------------------------|
|-7-7-7-5-5-5-1010-10-0-0-0-33-3-3-3-3-2-2-25-55-|
|-7-7-7-5-5-5-10-10-10-0-0-0-3-3-3-3-3-3-2-2-25-5-5-|
|-7-7-7-5-5-5-10-10-10-0-0-0-3-3-3-3-3-3-2-2-25-55-|
Repeat again, but with this variation on the same bar:
|------------------------------------------------------------------|
|------------------------------------------------------------------|
|------------------------------------------------------------------|
|-7-7-7-5-5-5-10-10-10-0-0-0-3-3-3-3-3-3-3-3-33-3-35-5-5-555-5-|
|-7-7-7-5-5-5-10-10-10-0-0-0-3-3-3-33-3-3-3-33-33-5-5-5-5-5-5-5-|
|-7-7-7-5-5-5-10-10-10-0-0-0-3-3-3-3-3-3-3-3-3-3-3-35-5-5555-5-|
Guitar 2 also adds this to the second chorus:
|----------------------------|
|-10-1010-8-8-8-------------|
|--x--x--x-x-x-x-7-7-7-9-9-9-|
|--7--7--7-5-5-5-x-x-x-x-x-x-|
|----------------5-5-5-7-7-7-|
|----------------------------| x2

Ending variation 1
|----------------------------------------------------------------|
|-10-10-10-8-8-8-13-13-13----------------------------------------|
|--x--x--x-x-x-x--x--x--x-7-7-7-10-10-10-1010-10-9991212-12-|
|--7--7--7-5-5-5-10-10-10-x-x-x--x--x--x--x--x--x-x-x-x--x--x--x-|
|-------------------------5-5-5--8--8--8--8--8--8-77-7-10-1010-|
|----------------------------------------------------------------|
Ending variation 2 (notice the strum counts under last two notes)
|----------------------------------------|
|-10-10-10-8-8-8-13-13-13----------------|
|--x--x--x-x-x-x--x--x--x-7-7-7--10--12--|
|--7--7--7-5-5-5-10-10-10-x-x-x---x---x--|
|-------------------------5-5-5--8--10--|
|----------------------------------------|
                                 x12 x7
Bridge Part 1 (pre-solo)
|---------------------------|
|---------------------------|
|---------------------------|
|-5-4-2~-------2-2-4~-------|
|---------------------------|
|---------------------------|

Bridge Part 2, Solo
|-------|-------7--7-5---5-------------------7~-7-5---5~------------|
|-8-7-5-|-5--5---------8----7^---8-7-5-5~-5~--------8----7^-8-7-5-5-|
|-------|-----------------------------------------------------------|
|-------|-----------------------------------------------------------|
|-------|-----------------------------------------------------------|
|-------|-----------------------------------------------------------|
(Continued)
-----------------10-10-10------------10---10-14--14-10--10-12-10-12-14-1214|
---5-7-5-7-8-7-8----------10-10-10-10--10------10-----10-------------------|
-7-------------------------------------------------------------------------|
---------------------------------------------------------------------------|
---------------------------------------------------------------------------|
---------------------------------------------------------------------------|

Continued)
-15-14-15-17-17-17-------------------------|
-------------------19~---20--1915~--15~---|
-------------------------------------------|
-------------------------------------------|
-------------------------------------------|
-------------------------------------------|
Solo repeats this until end
|-----------------------|
|-15------15--17-----17-|
|-----14----------14----|
|-----------------------|
|-----------------------|
|-----------------------|
 outro:
|-------19-17-15-17-19----------19-17-|
|-15-17----------------17-15-17-------|
|-------------------------------------|
|-------------------------------------|
|-------------------------------------|
|-------------------------------------|


13.No Roads Left (Drop D tuning)

Intro/Verse
Gtr 1(distorted)
e--8--8--8--8--10-10-10-10-10-----|
b--10-10-10-10-10-10-10-10-10-----|
g---------------------------------|X20
d---------------------------------|
a---------------------------------|
D---------------------------------|


Pre-Chorous
Gtr 2(distorted)
e---------------------------------------------|
b---------------------------------------------|
g-10-10-10-10-10-10-10-10/12-12-12-12-12-12-12|
d-x--x--x--x--x--x--x--x--x--x--x--x--x--x--x-|
a-8--8--8--8--8--8--8--8-/10-10-10-10-10-10-10|
D---------------------------------------------|
          X2 (second pre chorous 3x)


Gtr 1(distorted)
E-8---8-8--8---8---8---8----8---8---8|
B-10-10-10-10--10--10--10--10--10--10|
G------------------------------------|
D------------------------------------|
A------------------------------------|
D------------------------------------|
                                             X2(second pre chorous 3x)


Chorous
Gtr 2(distorted)
e-------------------------------------------------------------------------|
b-------------------------------------------------------------------------|
g-17-17-17-17-17-17-17-17-16-16-16-16-16-16-16-16-17-17-17-17-17-17-17-17-|
d-x--x--x--x--x--x--x--x--x--x--x--x--x--x--x--x--x--x--x--x--x--x--x--x--|
a-15-15-15-15-15-15-15-15-14-14-14-14-14-14-14-14-15-15-15-15-15-15-15-15-|
D-------------------------------------------------------------------------|

------------------------|   |-----------------------------|
------------------------|   |-----------------------------|
17-17-17-17-19-19-19-19-|X2 |19-19-19-19~----19-19-19-19~-|
x--x--x--x--x--x--x--x--|   |x--x--x--x-------x--x--x--x--|
15-15-15-15-17-17-17-17-|   |17-17-17-17~----17-17-17-17~-|
------------------------|   |-----------------------------|


Gtr 1 (slightly distorted)
e-----------------------------------------------------------------|   |
b-----------------------------------------------------------------|   |
g-2-2-2-2-2-2-2-2---------------------------------5-5-5-5-4-4-4-4-|X2 |
d-2-2-2-2-2-2-2-2-5-5-5-5-5-5-5-5-3-3-3-3-3-3-3-3-5-5-5-5-4-4-4-4-|   |
a-0-0-0-0-0-0-0-0-5-5-5-5-5-5-5-5-3-3-3-3-3-3-3-3-3-3-3-3-2-2-2-2-|   |
D-----------------5-5-5-5-5-5-5-5-3-3-3-3-3-3-3-3-----------------|   |

------------------------|
------------------------|
------------------------|
-0-0-0-0-0~---5-5-5-5-5~|
-0-0-0-0-0----5-5-5-5-5~|
-0-0-0-0-0~---5-5-5-5-5~|


Bridge
Gtr 1(heavily distorted)
e----------------------------------------------------------------|-------|
b----------------------------------------------------------------|-------|
g----------------------------------------------------------------|-- X16-|
d-0-0-0-0-0-0-0-0-3-3-3-3-3-3-3-3-7-7-7-7-7-7-7-7-5-5-5-5-5-5-5-5|-5-----|
a-0-0-0-0-0-0-0-0-3-3-3-3-3-3-3-3-7-7-7-7-7-7-7-7-5-5-5-5-5-5-5-5|-5-----|
D-0-0-0-0-0-0-0-0-3-3-3-3-3-3-3-3-7-7-7-7-7-7-7-7-5-5-5-5-5-5-5-5|-5-----|


Final Pre-Chorous
Gtr 2(distorted)
e------------------------------------------|
b------------------------------------------|
g-10-10-10-10-10-10-10-10/12-12-12-12-12-12|
d-x--x--x--x--x--x--x--x--x--x--x--x--x--x-|
a-8--8--8--8--8--8--8--8-/10-10-10-10-10-10|
D------------------------------------------|

e------------------------------------|
b------------------------------------|
g-10-10-10-10-10-10-10-10/12-12-12-12|
d-x--x--x--x--x--x--x--x--x--x--x---x|
a-8--8--8--8--8--8--8--8-/10-10-10-10|
D------------------------------------|


Gtr 1( Heavily distorted)
e-------------------------------|
b-------------------------------|
g-2-2-2-2-2-2-2-2-2-2-2-2-2-2-2-|
d-2-2-2-2-2-2-2-2-2-2-2-2-2-2-2-|
a-0-0-0-0-0-0-0-0-0-0-0-0-0-0-0-|
D-------------------------------|

e---------------------------|
b---------------------------|
g---------------------------|
d-3-3-3-3-3-3-3-3-5-5-5-5-5-|
a-3-3-3-3-3-3-3-3-5-5-5-5-5-|
D-3-3-3-3-3-3-3-3-5-5-5-5-5-|

REpeat Chorus

Ending
Gtr 1
e--8--8--8--8--10-10-10-10-10-----|
b--10-10-10-10-10-10-10-10-10-----|
g---------------------------------|X12
d---------------------------------|
a---------------------------------|
D---------------------------------|


That's all the tabs for now I didn't double check them all cuz that would take forever
dont mind me if i made mistakes.
Please rate and comment thx!

well, enjoy

;)
Related for Minutes To Midnight tab