Song name
# A B C D E F G H I J K L M N O P Q R S T U V W X Y Z

Linkin Park - Lockjaw tab

-------------------------------------------------------------------------------
     LOCKJAW - Linkin Park
-------------------------------------------------------------------------------
Tabbed by: Carlos (ItaliaRuiz97)
Email: italiaruiz97@yahoo.com

Tuning: Standard (EADGBE)

ok, so chances are, if you are a die-hard Linkin Park fan like me, you've probably been
and heard their new instrumental 'Lockjaw', or the track Mike is playing in the
8 thing. Well here is the tab for the guitar and background piano part, it's not that 
it only took me about 10 min. to get this. Questions or comments, my email is above or you can
a comment on my YouTube page my username is CarlosRuiz97. While you're they're check out 
of my guitar covers on YouTube and comment! With that settled, here is the tab for 'Lockjaw'

First Riff that is played (:19)

e|------10---7---------------------------------------------------------------|
B|---10----------------------------------------------------------------------|
G|-9-------------------------------------------------------------------------|
D|---------------------------------------------------------------------------|
A|---------------------------------------------------------------------------|
E|---------------------------------------------------------------------------|

Background piano part

e|-------7-----7------8------7-----------------------------------------------|
B|---10-----10-----10----10--------------------------------------------------|
G|-9-------9----9------9-----------------------------------------------------|
D|---------------------------------------------------------------------------|
A|---------------------------------------------------------------------------|
E|---------------------------------------------------------------------------|

  Main Riff (:52)

e|---------------------------------------------------------------------------|
B|---------------------------------------------------------------------------|
G|-9-9-9-9-9-9-9-9-12-11-7---------------------------------------------------|
D|---------------------------------------------------------------------------|
A|---------------------------------------------------------------------------|
E|---------------------------------------------------------------------------|

That's about it. Like I said, it's pretty easy. Remember to check out my guitar vids and
my YouTube username is CarlosRuiz97

| /  slide up
| \  slide down
| h  hammer-on
| p  pull-off
| ~  vibrato
| +  harmonic
| x  Mute note
===============================================================================
Tap to rate this tab
# A B C D E F G H I J K L M N O P Q R S T U V W X Y Z