Song name
# A B C D E F G H I J K L M N O P Q R S T U V W X Y Z

Linkin Park - Wake Live tab

Well,I decided to write a tab for wake 2.0 from Road to Revolution.Itīs a very 
nice song and I think LP
should make more instrumental songs in their new Album.So hereīs the tab:
Guitar 1 - D A D G B E (Brad) (Distorted w/reverb)
Guitar 2 - D A D G B E (Mike) (Distorted)

Intro Part(guitar 1)


|-------------------------------------------------------------------------|
|-------------------------------------------------------------------------|
|-------------------------------------------------------------------------|
|-12-------12----12-12----12----12----13-------13----13-13----13----13----|
|-10-------10----10-10----10----10----10-------10----10-10----10----10----|
|-------------------------------------------------------------------------|

|-------------------------------------------------------------------------|
|-------------------------------------------------------------------------|
|-------------------------------------------------------------------------|
|-12-------12----12-12----12----12----12-------12----12-12----12----12----|
|-10-------10----10-10----10----10----10-------10----10-10----10----10----|
|-------------------------------------------------------------------------|

|------------------------------|
|------------------------------|
|------------------------------|
|-10-10---10--10-10--10--10/12-|
|-8--8----8---8--8---8---8-/10-|
|------------------------------

|-------------------------------------------------------------------------|
|-------------------------------------------------------------------------|
|-------------------------------------------------------------------------|
|-12-------12----12-12----12----12----13-------13----13-13----13----13----|
|-10-------10----10-10----10----10----10-------10----10-10----10----10----|
|-------------------------------------------------------------------------|

|-------------------------------------------------------------------------|
|-------------------------------------------------------------------------|
|-------------------------------------------------------------------------|
|-12-------12----12-12----12----12----12-------12----12-12----12----12----|
|-10-------10----10-10----10----10----10-------10----10-10----10----10----|
|-------------------------------------------------------------------------|

Heavy Part(Guitar 1 and 2)

Guitar 1
|-------------------------------------------------------------------------|
|-------------------------------------------------------------------------|
|-12-12-12-12-12-12-12-12-12-12-12-12-14-14-14-14-14-14-14-14-14-14-14-14-|
|-x--x--x--x--x--x--x--x--x--x--x--x--x--x--x--x--x--x--x--x--x--x--x--x--|
|-10-10-10-10-10-10-10-10-10-10-10-10-12-12-12-12-12-12-12-12-12-12-12-12-|
|-------------------------------------------------------------------------|
Guitar 2
|-------------------------------------------------------------------------|
|-------------------------------------------------------------------------|
|-------------------------------------------------------------------------|
|-1--------1-----1--1-----1-----1-----3--------3-----3--3-----3-----3-----|
|-1--------1-----1--1-----1-----1-----3--------3-----3--3-----3-----3-----|
|-1--------1-----1--1-----1-----1-----3--------3-----3--3-----3-----3-----|

Guitar 1

|----------------------------------------------------|
|----------------------------------------------------|
|-16-16-16-16-16-16-16-16-16-16-16-16-16b-16b-16b-16b-
|-x--x--x--x--x--x--x--x--x--x--x--x--x---x---x---x--
|-14-14-14-14-14-14-14-14-14-14-14-14-14b-14b-14b-14b
|----------------------------------------------------|

Guitar 2

|-------------------------------------------------------------------------|
|-------------------------------------------------------------------------|
|-------------------------------------------------------------------------|
|-5--------5-----5--5-----5-----5-----5-----------5-------5---5-----5-----|
|-5--------5-----5--5-----5-----5-----5-----------5-------5---5-----5-----|
|-5--------5-----5--5-----5-----5-----5-----------5-------5---5-----5-----|


and repeat the heavy part but at the end guitar 1 plays:

|-------------------------------------------------------------------------|
|-------------------------------------------------------------------------|
|-12-12-12-12-12-12-12-12-12-12-12-12-12-12-12-12-12-12-12-12-12-12-12-12-|
|-x--x--x--x--x--x--x--x--x--x--x--x--x--x--x--x--x--x--x--x--x--x--x--x--|
|-10-10-10-10-10-10-10-10-10-10-10-10-10-10-10-10-10-10-10-10-10-10-10-10-|
|-------------------------------------------------------------------------|
Tap to rate this tab
# A B C D E F G H I J K L M N O P Q R S T U V W X Y Z