Song name
# A B C D E F G H I J K L M N O P Q R S T U V W X Y Z

Linkin Park - New Divide tab

New Divide
Linkin Park
Transformers 2: Revenge of the Fallen OST
Date tabbed: 19th of May 2009
By: ezza619

DROP D TUNING
first tab...by ear, may be a bit off

\=slide to

Intro x4 (A)
|-----------------------------------------------------------------|
|-----------------------------------------------------------------|
|-----------------------------------------------------------------|
|-------------10----------13-----8-----10-------------------------|
|--11---8~-----------8~----------------------8--------------------|
|-----------------------------------------------------------------|
This is (A)

On the 3rd time a second guitar comes in and plays this (x2) (B)
|-----------------------------------------------------------------|
|-----------------------------------------------------------------|
|--5-------\-8--------\-15--------\-10----------------------------|
|--3-------\-6--------\-13--------\-8-----------------------------|
|--3--(x8)-\-6--(x8)--\-13--(x8)--\-8---(x8)----------------------|
|--3-------\-6--------\-13--------\-8-----------------------------|
This is (B)

VERSE
No guitar in verse except for this right before the chorus (When he says "Get what i 
Start playing:
|-----------------------------------------------------------------|
|-----------------------------------------------------------------|
|-----10--(x12?)-Palm mute and slowly release then----------------|
|-----------------play with no PM (like your building it up)------|
|-----------------------------------------------------------------|
|-----------------------------------------------------------------|

CHORUS
Play (B)

BUT on "let it be enough to reach the truth..."
(which is after 2nd time)

Play

|-----------------------------------------------------------------|
|-----------------------------------------------------------------|
|--13---------\-15------------------------------------------------|
|--11---------\-13------------------------------------------------|
|--11--(x16)--\-13--(x16)-----------------------------------------|
|--11---------\-13------------------------------------------------|

Then Intro x1 goin into verse 2

Verse 2
same as Verse 1

Chorus 2
After "across this new divide" theres that weird robotic solo (reminds me of buckethead) 
i can't tab it. But wat im hearing are lotsa efx with lotsa mutes and sum pull-offs

Bridge
Same as chorus

and for the accapella with just the guitar playing play (B) except the D string-this is 
same for last chorus


Outro "across this new divvvvviiiiiiiiiiiiiiiiiiideeeeeeee"

both guitars play intro (A) and (B)

then just (A) x2 for end of song.


enjoi?
Tap to rate this tab
# A B C D E F G H I J K L M N O P Q R S T U V W X Y Z