Song name
# A B C D E F G H I J K L M N O P Q R S T U V W X Y Z

Linkin Park - Shadow Of The Day drum

S=Snare Drum
B=Bass drum
H=Hi-hats
C=Crash Cymbal
T=mid tom (always play quietly)
---------------
o=Regular hit
g=Ghost note
O=drum accent (capital "o")
---------------
x=regular hit
w=slightly open hats (slightly washy)
W=more slightly open hats (plain washy)
0=play hi-hat open all the way without closing it(like a ride cymbal)
o=open hi-hat
I think i did pretty good on this.  It may even be better than the other Shadow of the Day's.

Intro
  |---------------20x----------------------------------|
S |----g-------g---|----g-------g---|----g-------g-----|
B |o-o-o-o-o-o-o-o-|o-o-o-goOoo-o-o-|o-o-o-o-o-o-o-o---|

Verse 1
C |----------------|X---------------|----------------|
H |--x---x---x---xo|--x-x-x-x-x-x-x-|x-x-x-x-x-x-x-o-|
S |----o-------o---|----o-------o---|----o-------o---|
B |o---------------|o-------o-------|o-------o-------|

Chorus 1
  |---------------7x----------------|
H |x-x-x-x-x-x-x-x-|x-x-x-x-x-x-x-o-|
S |----o-------o---|----o-------o---|
B |o-------o-------|o-------o-------|

Verse 2
H |x-x-x-x-x-x-x-x-|x-x-x-x-w-w-w-w-|W-W-W-W-W-W-W-W-|W-W-W-W-W-W-W-W-|
S |----o-------o---|----o-------o---|----o-------o---|--o-o-----o-o---|
B |o-------o-------|o-------o-------|o-------o-------|o-----o-o-----o-|

Chorus 2                            |------2x--------|
C |X---------------|----------------|----------------|
H |--0-0-0-0-0-0-0-|0-0-0-0-0-0-0-0-|0-0-0-0-0-0-0-0-|
S |----o-------o---|----o-------o---|----o-------o---|
B |o-----o-o-------|o-----o-o-------|o-----o-o-------|

                   |-------2x--------------------------|
C |X---------------|----------------|--X-X-----X-X-----|
H |--0-0-0-0-0-0-0-|0-0-0-0-0-0-0-0-|0-----0-0-----0---|
S |----o-------o---|----o-------o---|--o-o-----o-o-----|
B |o-----o-o-------|o-----o-o-------|o-----o-o-----o---|

C |X---------------|----------------|----------------|
H |--0-0-0-0-0-0-0-|0-0-0-0-0-0-0-0-|0-0-0-0-0-0-0-0-|
S |----o-------o---|----o-------o---|----o-------o---|
B |o-----o-o-------|o-----o-o-------|o-----o-o-------|

                   |-------2x--------------------------|
C |X---------------|----------------|--X-X-----X-X-----|
H |--0-0-0-0-0-0-0-|0-0-0-0-0-0-0-0-|0-----0-0-----0---|
S |----o-------o---|----o-------o---|--o-o-----o-o-----|
B |o-----o-o-------|o-----o-o-------|o-----o-o-----o---|

Pre-chorus
  |---------------3x----------------|
C |X---------------|----------------|
H |--0-0-0-0-0-0-0-|0o0-0-0-0-0-0-0-|
S |----o-------o---|----o-------o---|
B |o-------o-------|o-------o-------|

C |----------------|--X-X-----X-X---|
H |w-w-w-w-W-W-W-W-|0-----0-0-----0-|
S |----o-------o---|--o-o-----o-o---|
B |o-------o-------|o-----o-o-----o-|

C |X---------------|----------------|----------------|
H |--0-0-0-0-0-0-0-|0-0-0-0-0-0-0-0-|0-0-0-0-0-0-0-0-|
S |----o-------o---|----o-------o---|----o-------o---|
B |o-----o-o-------|o-----o-o-------|o-----o-o-------|

                   |-------2x--------------------------|
C |X---------------|----------------|--X-X-----X-X-----|
H |--0-0-0-0-0-0-0-|0-0-0-0-0-0-0-0-|0-----0-0-----0---|
S |----o-------o---|----o-------o---|--o-o-----o-o-----|
B |o-----o-o-------|o-----o-o-------|o-----o-o-----o---|


Outro              |-------3x-------|
C |X---------------|----------------|
HH|--0-0-0-0-0-0-0-|0-0-0-0-0-0-0-0-|
S |----o-------o---|----o-------o---|
B |o-----o-o-------|o-------o-------|

                   |-------2x--------------------------|
C |X---------------|----------------|------------------|
H |--0-0-0-0-0-0-0-|0o0-0-0-0-0-0o0-|0o0-0-0-0o0-0-0---|
T |----------------|----------------|--------------o---|
S |----o-------o---|----o-------o---|----o-------o-----|
B |o-------o-------|o-------o-------|o-o-----o-o-------|

                   |-------2x--------------------------|
C |X---------------|----------------|------------------|
H |--0-0-0-0-0-0-0-|0o0-0-0-0-0-0o0-|0o0-0-0-0o0-0-0---|
T |----------------|----------------|--------------o---|
S |----o-------o---|----o-------o---|----o-------o-----|
B |o-------o-------|o-------o-------|o-o-----o-o-------|

                   |-------2x--------------------------|
C |X---------------|----------------|------------------|
HH|--0-0-0o0-0-0-0-|0-0-0-0o0-0-0o0-|0-0o0-0-0o0-0-0---|
T |----------------|----------------|--------------o---|
S |----o-------o---|----o-------o---|----o-------o-----|
B |o-------o-------|o-------o-o-----|o-o-----o-o-------|

C |x---------------|
S |o---------------|
B |o---------------|
Tap to rate this tab
# A B C D E F G H I J K L M N O P Q R S T U V W X Y Z