Song name
# A B C D E F G H I J K L M N O P Q R S T U V W X Y Z

Linkin Park - Head Strong tab

may not be 100% correct but here goes.

INTRO

e|---------2-2--------2-2-------------0--0--------0--0-----------|
b|---------------------------------------------------------------|
g|---------------------------------------------------------------|
d|---------------------------------------------------------2-----|
a|---4--4-------4--4------------2--2--------2--2-----------2--3--|
e|---2--2-------2--2------------0--0--------0--0--------------3--|

 play 3 times

verse

e|--------------------7-----------------------------------|
b|--7-7-7-7-7-7-8-8-7---------5-5-5-5-5-5-5-3-3-0---------|
g|--------------------------------------------------------|
d|--------------------------------------------------------|
a|--------------------------------------------------------|
e|--------------------------------------------------------|

the rest of the song is virtualy the same sequences all the way through with just some 
changes
Tap to rate this tab
# A B C D E F G H I J K L M N O P Q R S T U V W X Y Z