Song name
# A B C D E F G H I J K L M N O P Q R S T U V W X Y Z

Linkin Park - Valentines Day tab

Verse 01: x6

e[--------------5-------------------------------]
h[--3~~~6---8-------8---6---8---6----6~~~-------]
g[--------7---7---7---7---7---7----7------------] 6
D[----------------------------------------------]
A[----------------------------------------------]
E[----------------------------------------------]

e[----------------------------------------------]
h[--3~~~6---8---10--8---6---8---6----6~~~-------]
g[--------7---7---7---7---7---7----7------------]
D[----------------------------------------------]
A[----------------------------------------------]
E[----------------------------------------------]


Versr 02: x6

e[--------------5-------------------------------]
h[--3~~~6---8-------8---6---8---6----6~~~-------]
g[--------7---7---7---7---7---7----7------------]
D[----------------------------------------------]
A[----------------------------------------------]
E[----------------------------------------------]

e[----------------------------------------------]
h[--3~~~6---8---10--8---6---6---5~6~5~~3--------]
g[--------7---7---7---7---7---------------------]
D[----------------------------------------------]
A[----------------------------------------------]
E[----------------------------------------------]


Transition: x1

e[-----------------------]
h[--3~~~~~~3~~6~~~~5~~---]
g[-----------------------]
D[-----------------------]
A[-----------------------]
E[-----------------------]

e[---------------------------------------------------]
h[---6--3-3---6--3-3---6--3-3---6--3-3---6-3---6-3---]
g[---------------------------------------------------]
D[---------------------------------------------------]
A[---------------------------------------------------]
E[---------------------------------------------------]

e[---------------------------------------------------]
h[---6--5-5---6--5-5---6--5-5---6--5-5---6-5---6-5---]
g[---------------------------------------------------]
D[---------------------------------------------------]
A[---------------------------------------------------]
E[---------------------------------------------------]

e[---------------------------------------------------]
h[-10-6-6---10-6-6---10-6-6---10-6-6---10-6---10-6---]
g[---------------------------------------------------]
D[---------------------------------------------------]
A[---------------------------------------------------]
E[---------------------------------------------------]

e[---------------------------------------------------]
h[---8--6-6---8--6-6---8--6-6---8--6-6---8-6---8-6---]
g[---------------------------------------------------]
D[---------------------------------------------------]
A[---------------------------------------------------]
E[---------------------------------------------------]

e[---------------------------------------------------]
h[---6--3-3---6--3-3---6--3---6--3-3---6-3-3--6-3~~~-]
g[---------------------------------------------------]
D[---------------------------------------------------]
A[---------------------------------------------------]
E[---------------------------------------------------]


Chours: x6

e[-X-X-X-X-X-X-X-X-X-X--X-X-X-X-X-X----]
h[-3-3-6-6-6-6-6-6-6-6--6-6-6-6-6-6----]
g[-5-5-5-5-5-5-5-5-5-5--5-5-5-5-5-5----]
D[-X-X-X-X-X-X-X-X-X-X--X-X-X-X-X-X----]
A[-------------------------------------]
E[-------------------------------------]

e[-X-X-X-X-X-X-X-X-X-X--X-X-X-X-X-X----]
h[-3-3-6-6-6-6-6-6-6-6--5-5-5-5-5-5----]
g[-5-5-5-5-5-5-5-5-5-5--5-5-5-5-5-5----]
D[-X-X-X-X-X-X-X-X-X-X--X-X-X-X-X-X----]
A[-------------------------------------]
E[-------------------------------------]


Exit: x1

e[-X-X-X-X-X-X-X-X-X-X--X-X-X-X-X-X----]
h[-3-3-6-6-6-6-6-6-6-6--6-6-6-6-6-6----]
g[-5-5-5-5-5-5-5-5-5-5--5-5-5-5-5-5----]
D[-X-X-X-X-X-X-X-X-X-X--X-X-X-X-X-X----]
A[-------------------------------------]
E[-------------------------------------]

e[-X-X-X-X-X-X-X-X-X-X--X-X-X-X-X-X-0-0-X--]
h[-3-3-6-6-6-6-6-6-6-6--5-5-5-5-5-5-5-5-X--]
g[-5-5-5-5-5-5-5-5-5-5--5-5-5-5-5-5-5-5-X--]
D[-X-X-X-X-X-X-X-X-X-X--X-X-X-X-X-X-0-0-X--]
A[--------------------------------------X--]
E[--------------------------------------X--]




Tap to rate this tab
# A B C D E F G H I J K L M N O P Q R S T U V W X Y Z