Song name
# A B C D E F G H I J K L M N O P Q R S T U V W X Y Z

Linkin Park - In Pieces tab

Linkin Park - In Pieces (solo)

Wrote by Linkin Park (MS, CB, RB, BD, DF, JH and MW)

Tabbed by JJH (jjhurta2@hotmail.com)

FIRST TAB!!!!!!!

e|-------------------------|------------------------|
B|-------------------------|------------------------|
G|-12h13p12p10-12h13p12p10-|12h13p12p10-12h13p12p10-|
D|-------------------------|------------------------|
A|-------------------------|------------------------|
E|-------------------------|------------------------|

|------------------------|---------|
|------------------------|---------|
|12h13p12p10-12h13p12p10-|12-------|
|------------------------|---13-10-|
|------------------------|---------|
|------------------------|---------|

|-------------------------|------------------------|
|-------------------------|------------------------|
|-12h13p12p10-12h13p12p10-|12h13p12p10-12h13p12p10-|
|-------------------------|------------------------|
|-------------------------|------------------------|
|-------------------------|------------------------|

|------------------------|---------|
|------------------------|---------|
|12h13p12p10-12h13p12p10-|12-------|
|------------------------|---13-10-|
|------------------------|---------|
|------------------------|---------|

|-------------------------|------------------------|
|-------------------------|------------------------|
|-12h13p12p10-12h13p12p10-|12h13p12p10-12h13p12p10-|
|-------------------------|------------------------|
|-------------------------|------------------------|
|-------------------------|------------------------|

|------------------------|---------|
|------------------------|---------|
|12h13p12p10-12h13p12p10-|12-------|
|------------------------|---13-10-|
|------------------------|---------|
|------------------------|---------|

|----------------|----------------|----------------|----------------|
|----------------|----------------|----------------|----------------|
|-13--13--13--13-|-13--13--13--13-|-12--12--12--12-|-12--12--12--12-|
|----------------|----------------|----------------|----------------|
|----------------|----------------|----------------|----------------|
|----------------|----------------|----------------|----------------|

|-------------------------|------------------------|
|-------------------------|------------------------|
|-12h13p12p10-12h13p12p10-|12h13p12p10-12h13p12p10-|
|-------------------------|------------------------|
|-------------------------|------------------------|
|-------------------------|------------------------|

|------------|----------------|
|------------|----------------|
|12-13-15-17-|17h18p17p15-17--|
|------------|----------------|
|------------|----------------|
|------------|----------------|

|-------------------------|------------------------|
|-------------------------|------------------------|
|-12h13p12p10-12h13p12p10-|12h13p12p10-12h13p12p10-|
|-------------------------|------------------------|
|-------------------------|------------------------|
|-------------------------|------------------------|

|------------|----------------|
|------------|----------------|
|12-13-15-17-|17h18p17p15-17--|
|------------|----------------|
|------------|----------------|
|------------|----------------|

|-------------------------|------------------|-------------------|
|-------------------------|------------------|-------------------|
|-10-12-13-15-15h17p15p13-|15-17----------17-|17h18p17p15-17-18--|
|-------------------------|------17-18-20----|-------------------|
|-------------------------|------------------|-------------------|
|-------------------------|------------------|-------------------|

|---------------------------------------------------------------------------|
|---------------------------------------------------------------------------|
|17h18p17p15-17h18p17p15-17h18p17p15-17h18p17p15-17--17--17--17--17--17--17\|
|---------------------------------------------------------------------------|
|---------------------------------------------------------------------------|
|---------------------------------------------------------------------------|
Tap to rate this tab
# A B C D E F G H I J K L M N O P Q R S T U V W X Y Z