Song name
# A B C D E F G H I J K L M N O P Q R S T U V W X Y Z

Linkin Park - A06 tab

Intro Riff:
|-----------------------------------|
|-----------------------------------|
|-----------------------------------|
|-----------------------------------|
|-----------------------------------|
|-6b(7)-0-0--1---1--0---0--0-1--1-0-|

Verse Riff:
|---------------------------------|
|---------------------------------|
|---------------------------------|
|-8-7-0-0-8-7-0-0---0-8-7-8-7-0-0-|
|-8-7-0-0-8-7-0-0---0-8-7-8-7-0-0-|
|-8-7-0-0-8-7-0-0---0-8-7-8-7-0-0-|

Chorus Riff:
|------------------------------------------------------------|
|------------------------------------------------------------|
|------------------------------------------------------------|
|-8-7-0----10--3---3-3-3-8-7----2-3-3-3-3-2-0-5----5-5-5-7-8-|
|-8-7-0----8---3---3-3-3-8-7----2-3-3-3-3-2-0-5----5-5-5-7-8-|
|-8-7-0----8---3---3-3-3-8-7----2-3-3-3-3-2-0-5----5-5-5-7-8-|

Bridge Riff:
|---------------------------------|
|---------------------------------|
|----------------------------(*7)-|
|-6b(7)---1-0---0--0-1-0-1-0------|
|-6b(7)---1-0---0--0-1-0-1-0------|
|-6b(7)---1-0---0--0-1-0-1-0------|

|------------------------------|
|------------------------------|
|------------------------------|
|-6b(7)---1-0---0--0-1-0-1-0-0-|
|-6b(7)---1-0---0--0-1-0-1-0---|
|-6b(7)---1-0---0--0-1-0-1-0---|

Outro:
|------------------------------|
|------------------------------|
|------------------------------|
|-2-3-3-3-3-2-0-5----5-5-5-7-8-|
|-2-3-3-3-3-2-0-5----5-5-5-7-8-|
|-2-3-3-3-3-2-0-5----5-5-5-7-8-|

|------------------------------|
|------------------------------|
|------------------------------|
|-2-3-3-3-3-2-0-5----5-5-5-7-8-|
|-2-3-3-3-3-2-0-5----5-5-5-7-8-|
|-2-3-3-3-3-2-0-5----5-5-5-7-8-|

|------------------------------|
|------------------------------|
|------------------------------|
|-2-3-3-3-3-2-0-5----5-5-5-7-8-|
|-2-3-3-3-3-2-0-5----5-5-5-7-8-|
|-2-3-3-3-3-2-0-5----5-5-5-7-8-|
Tap to rate this tab
 
# A B C D E F G H I J K L M N O P Q R S T U V W X Y Z