Song name
# A B C D E F G H I J K L M N O P Q R S T U V W X Y Z

Linkin Park - Not Alone tab

Artist: Linkin Park
Album: None (Haiti Relief Effort)


This is all rhythm (which is actually digital and not even on guitar)
but does sound correct if played in the background with proper effects.

- This part is delayed from start.
e|-------------------------------------------------|
B|-------------------------------------------------|
G|-------------------------------------------------|
D|-----4---6h4---4---------------------------------|
A|-4-4---4-----4---(x18)---------------------------|
E|-------------------------------------------------|

- Move up one Octave


- Play 42 times, wait for solo to end, then 24 more.
e|-------------------------------------------------|
B|-----7---9h7---7---------------------------------|
G|-6-6---6-----6-----------------------------------|
D|-------------------------------------------------|
A|-------------------------------------------------|
E|-------------------------------------------------|


First Tab, Hope you like it.
Tap to rate this tab
# A B C D E F G H I J K L M N O P Q R S T U V W X Y Z