Song name
# A B C D E F G H I J K L M N O P Q R S T U V W X Y Z

Linkin Park - A06 tab

 This is my first tab. Listen to the song for Rhythm.





 |------------------------------|
 |------------------------------|
 |------------------------------|
 |------------------------------| X8
 |------------------------------|
 |7-0-0-0-1-0-0-0--0-1-0-1-0-0-0|



 |-------------------------------|
 |-------------------------------|
 |-------------------------------|
 |-------------------------------| X12
 |-------------------------------|
 |8p7-0-0-8p7-0-0--0-8p7-8p7-0-0-|


 |----------------------------------------|
 |----------------------------------------|
 |----------------------------------------|
 |----------------------------------------| X2
 |8p7-0-0--3-3---5---7--0-3-3-3-0-5---7---|
 |8p7-0-0--3-3---5---7--0-3-3-3-0-5---7---|


 |-------------------------------|
 |-------------------------------|
 |-------------------------------|
 |-------------------------------| X8
 |-------------------------------|
 |8p7-0-0-8p7-0-0--0-8p7-8p7-0-0-|


 |----------------------------------------|
 |----------------------------------------|
 |----------------------------------------|
 |----------------------------------------| X4
 |8p7-0-0--3-3---5---7--0-3-3-3-0-5---7---|
 |8p7-0-0--3-3---5---7--0-3-3-3-0-5---7---|



 |------------------------------|
 |------------------------------|
 |------------------------------|
 |------------------------------| X8
 |------------------------------|
 |7-0-0-0-1-0-0-0--0-1-0-1-0-0-0|


 |--------------------------|
 |--------------------------|
 |--------------------------|
 |--------------------------| X8
 |--------------------------|
 |6b--0-1-0-0-0-1-0-1-0-----|



 |----------------------------------------|
 |----------------------------------------|
 |----------------------------------------|
 |----------------------------------------| X2
 |8p7-0-0--3-3---5---7--0-3-3-3-0-5---7---|
 |8p7-0-0--3-3---5---7--0-3-3-3-0-5---7---|


 |----------------|
 |----------------|
 |----------------|
 |----------------|
 |3-3-3-0-5---7---|
 |3-3-3-0-5---7---|
Tap to rate this tab
# A B C D E F G H I J K L M N O P Q R S T U V W X Y Z