Song name
# A B C D E F G H I J K L M N O P Q R S T U V W X Y Z

Linkin Park - Hands Held High tab

Please note: Never have I tabbed before, so I have no key or indications as to how long
should hold the note.
My sincerest apologies, you'll just have to listen to the song. I tabbed this to as an
for the previous
tab to add the keyboard part(all my own work), which you can see on the G and D string.
It's purpose is to enhance your performance while playing alone. Also, you could find 
for each of the
keyboard notes and have two guitarists perform together.
I hope my first tab makes a good impression and I hope you enjoy...

P.S. the note in the parenthesis is optional, to end the song with a chord if you want,
in order to play
on one guitar, you'll have to convert the G and D string notes, likely to D and/or A...

e-5-----5-----5---5-----5-----5---5-----5-----5---5-----5-----5---5-----5-----|
B---5-5---5-5---5---5-5---5-5---5---5-5---5-5---5---5-5---5-5---5---5-5---5-5-|
G-2-----------------------1---------------------------------------------------|
D---------------------------------4-------------------------------0-----------|
A-----------------------------------------------------------------------------|
E-----------------------------------------------------------------------------|

e-5---5-----5-----5---5-----5-----5---7-----7-----7---5-----5-----5---5-----5-|
B---5---5-5---5-5---5---5-5---5-5---5---5-5---5-5---5---5-5---5-5---5---5-5---|
G-------------------------------------4---------------2-----------------------|
D---------------------2-------------------------------------------------------|
A-----------------------------------------------------------------------------|
E-----------------------------------------------------------------------------|

e-----5---5-----5-----5---5-----5-----5---5-----5-----5---5-----5-----5---5---|
B-5-5---5---5-5---5-5---5---5-5---5-5---5---5-5---5-5---5---5-5---5-5---5---5-|
G-----2---2-----------------------1-------------------------------2-----------|
D-----------------------------------------4-------------------------------0---|
A-----------------------------------------------------------------------------|
E-----------------------------------------------------------------------------|

e---5-----5---5-----5-----5---5-----5-----5---7-----7-----7---5-----5-----5---|
B-5---5-5---5---5-5---5-5---5---5-5---5-5---5---5-5---5-5---5---5-5---5-5---5-|
G---------------------2-----------------------1-----------2---2---------------|
D-----------------------------2-----------------------------------------------|
A-----------------------------------------------------------------------------|
E-----------------------------------------------------------------------------|

e-5-----5-----5---5-----5-----5---5-----5-----5---5-----5-----5---5-----5-----|
B---5-5---5-5---5---5-5---5-5---5---5-5---5-5---5---5-5---5-5---5---5-5---5-5-|
G---------1-------------------------------2-------------------------------2---|
D-----------------4-------------------------------0---------------------------|
A-----------------------------------------------------------------------------|
E-----------------------------------------------------------------------------|

e-5---5-----5-----5---7-----7-----7---5-----5-----5---5-----5-----5---5-----5-|
B---5---5-5---5-5---5---5-5---5-5---5---5-5---5-5---5---5-5---5-5---5---5-5---|
G---------------------1-----------2---2-----------2---------------2---2-------|
D-----2-----------------------------------------------2-----------------------|
A-----------------------------------------------------------------------------|
E-----------------------------------------------------------------------------|

e-----5---7-----7-----7---5-----5-----5---5-----5-----5---5-----5-----5---7---|
B-5-5---5---5-5---5-5---5---5-5---5-5---5---5-5---5-5---5---5-5---5-5---5---5-|
G-----2---1-----------2---2-----------2---------------2---2-----------2---1---|
D-----------------------------------------0-----------------------------------|
A-----------------------------------------------------------------------------|
E-----------------------------------------------------------------------------|

e---7-----7---5-----5-----5---5-----5-----5---5-----5-----5---5-----5-----5---|
B-5---5-5---5---5-5---5-5---5---5-5---5-5---5---5-5---5-5---5---5-5---5-5---5-|
G---------2---2-----------------------1-------------------------------2-------|
D---------------------------------------------0-------------------------------|
A-----------------------------------------------------------------------------|
E-----------------------------------------------------------------------------|

e-5-----5-----5---5-----5-----5---7-----7-----7---7-----7-----7---5-----5-----|
B---5-5---5-5---5---5-5---5-5---5---5-5---5-5---5---5-5---5-5---5---5-5---5-5-|
G-------------------------2-------1---------------------------2---2-----------|
D-2---------------------------------------------------------------------------|
A-----------------------------------------------------------------------------|
E-----------------------------------------------------------------------------|

e-5---5-----5-----5---5-----5-----5---5-----5-----5---5-----5-----5---5-----5-|
B---5---5-5---5-5---5---5-5---5-5---5---5-5---5-5---5---5-5---5-5---5---5-5---|
G-----------------2---2-----------------------1-------------------------------|
D-----------------------------------------------------4-----------------------|
A-----------------------------------------------------------------------------|
E-----------------------------------------------------------------------------|

e-----5---5-----5-----5---5-----5-----5---5-----5-----5---7-----7-----7---5---|
B-5-5---5---5-5---5-5---5---5-5---5-5---5---5-5---5-5---5---5-5---5-5---5---5-|
G-2-------------------------------2-------2---------------1-----------2---2---|
D---------0-------------------------------------------------------------------|
A-----------------------------------------------------------------------------|
E-----------------------------------------------------------------------------|

e---5-----5---5-----5-----5---5-----5-----5---5-----5-----5---5-----5-----5---|
B-5---5-5---5---5-5---5-5---5---5-5---5-5---5---5-5---5-5---5---5-5---5-5---5-|
G---------------------1-------2-----------------------2-----------------------|
D-------------------------------------------------------------4---------------|
A-----------------------------------------------------------------------------|
E-----------------------------------------------------------------------------|

e-5-----5-----5---5-----5-----5---7-----7-----7---5-----5-----5---5-----5-----|
B---5-5---5-5---5---5-5---5-5---5---5-5---5-5---5---5-5---5-5---5---5-5---5-5-|
G---------2-----------------------1-----------2---------------2---2-----------|
D-----------------2-------------------------------4---------------------------|
A-----------------------------------------------------------------------------|
E-----------------------------------------------------------------------------|

e-5---5-----5-----5---7-----7-----7---5-----5-----5---5-----5-----5---5-----5-|
B---5---5-5---5-5---5---5-5---5-5---5---5-5---5-5---5---5-5---5-5---5---5-5---|
G-2---2-----------2---1-----------2---2-----------2---2-----------2---2-------|
D-----------------------------------------------------------------------------|
A-----------------------------------------------------------------------------|
E-----------------------------------------------------------------------------|

e-----5---7-----7-----7---5-----5-----5---5-----5-----5---5-----5-----5---5---|
B-5-5---5---5-5---5-5---5---5-5---5-5---5---5-5---5-5---5---5-5---5-5---5---5-|
G-----2---1-------1---2---2-----------------------1-------2-------------------|
D-----------------------------------------------------------------------------|
A-----------------------------------------------------------------------------|
E-----------------------------------------------------------------------------|

e---5-----5---5-----5-----5---5-----5-----5---7-----7-----7---7-----7-----7---|
B-5---5-5---5---5-5---5-5---5---5-5---5-5---5---5-5---5-5---5---5-5---5-5---5-|
G-----2-------2-----------------------2-------1-----------------------1---2---|
D-----------------------------------------------------------------------------|
A-----------------------------------------------------------------------------|
E-----------------------------------------------------------------------------|

e-5-----5-----5---5-----5-----5---5-----5-----5---7-----7-----7---5-----5-----|
B---5-5---5-5---5---5-5---5-5---5---5-5---5-5---5---5-5---5-5---5---5-5---5-5-|
G-2-----------2---2-----------2---2-----------2---1-------1---2---2-----------|
D-----------------------------------------------------------------------------|
A-----------------------------------------------------------------------------|
E-----------------------------------------------------------------------------|

e-5---5-----5-----5---5-----5-----5---7-----7-----7---5-----5-----5---5-----5-|
B---5---5-5---5-5---5---5-5---5-5---5---5-5---5-5---5---5-5---5-5---5---5-5---|
G-2---2-----------2---2-----------2---1-------1---2---2-----------2---2-------|
D-----------------------------------------------------------------------------|
A-----------------------------------------------------------------------------|
E-----------------------------------------------------------------------------|

e-----5---5-----5-----5---7-----7-----7---5-----5-----5---5-----5-----5---5---|
B-5-5---5---5-5---5-5---5---5-5---5-5---5---5-5---5-5---5---5-5---5-5---5---5-|
G-----2---2-----------2---1-------1---2---2-----------2---2-----------2---2---|
D-----------------------------------------------------------------------------|
A-----------------------------------------------------------------------------|
E-----------------------------------------------------------------------------|

e---5-----5---7-----7-----7---5-----5-----5---5-----5-----5---5-----5-----5---|
B-5---5-5---5---5-5---5-5---5---5-5---5-5---5---5-5---5-5---5---5-5---5-5---5-|
G---------2---1-------1---2---2-----------2---2-----------2---2-----------2---|
D-----------------------------------------------------------------------------|
A-----------------------------------------------------------------------------|
E-----------------------------------------------------------------------------|

e-7-----7-----7---5----------------------------------------------------------|
B---5-5---5-5---5(5)---------------------------------------------------------|
G-1-------1---2---2------------Hold the last note----------------------------|
D-------------------------------The rest is just-----------------------------|
A--------------------------------The voice and-------------------------------|
E------------------------------------"amen"----------------------------------|
Tap to rate this tab
 
# A B C D E F G H I J K L M N O P Q R S T U V W X Y Z