Song name
# A B C D E F G H I J K L M N O P Q R S T U V W X Y Z

Linkin Park - One Step Closer tab

Artist:Linkin Park
Song:One Step Closer
Album:Hybird Theory

Tabbed by Daniel (atkingj@alphalink.com.au)

This is pretty easy.

intro: times 4

e|-------------------------------------------------|
b|-------------------------------------------------|
g|-------------------------------------------------|
D|-------------------------------------------------|
A|----------------7--------------------------------|
E|--0----5----7-------8----7----0----3-------------|

Riff 2 This is just heavier. times 4

e|-------------------------------------------------|
b|-------------------------------------------------|
g|-------------------------------------------------|
D|------------------7------------------------------|
A|---0----5----7----7-----8-----7-----0----3-------|
E|---0----5----7----------8-----7-----0----3-------|

Riff 3

e|-------------------------------------------------|
b|-------------------------------------------------|
g|-------------------------------------------------|
D|-------------------------------------------------|
A|----0----5--------7-----8-----7------------------|
E|----0----5---7----------8-----7------0----3------|


That's most of it. Its about 99% right

any problams just e-mail me. 

SEE-YA
Tap to rate this tab
# A B C D E F G H I J K L M N O P Q R S T U V W X Y Z