Song name
# A B C D E F G H I J K L M N O P Q R S T U V W X Y Z

Linkin Park - Bleed It Out tab

-------------------------------------------------------------------------------
			     "BLEED IT OUT" - Linkin Park
-------------------------------------------------------------------------------
Tabbed by: falco.1993
Email: phoenix.1993@ymail.com

Tuning: Drop D

NOTE: On the main riff, bend the 5th fret note 
toward the edge of the fretboard to get the same sound as the song.

Intro/Verse:

e|-9---9-9-----9---9-9-9---9---9-9-7-----7---7-7---7-7-7-7-5-5-5-5-|
B|---7-----7-7---7-------7---7-------7-7---7-----7---------0-0-0-0-|
G|-----------------------------------------------------------------|
D|-----------------------------------------------------------------|
A|-----------------------------------------------------------------|
D|-----------------------------------------------------------------| x3

e|---------------------------------9---9-9-----9---9-9-9---9---9-9-|
B|-7-7-7-7---------9-9-9-9-----------7-----7-7---7-------7---7-----|
G|---------7-7-7-7---------9-9-9-9---------------------------------|
D|-----------------------------------------------------------------|
A|-----------------------------------------------------------------|
D|-----------------------------------------------------------------|

e|---------------------------------7-----7---7-7---7-7-7-7-5-5-5-5-|
B|-7-7-7-7---------9-9-9-9-----------7-7---7-----7---------0-0-0-0-|
G|---------7-7-7-7---------9-9-9-9---------------------------------|
D|-----------------------------------------------------------------|
A|-----------------------------------------------------------------|
D|-----------------------------------------------------------------|

Chorus:

e|-9---9-9-----9---9-9-9---9---9-9-7-----7---7-7---7-7-7-7-5-5-5-5-|
B|---7-----7-7---7-------7---7-------7-7---7-----7---------0-0-0-0-|
G|-----------------------------------------------------------------|
D|-----------------------------------------------------------------|
A|-----------------------------------------------------------------|
D|-----------------------------------------------------------------| x2

Verse:

e|-9---9-9-----9---9-9-9---9---9-9-7-----7---7-7---7-7-7-7-5-5-5-5-|
B|---7-----7-7---7-------7---7-------7-7---7-----7---------0-0-0-0-|
G|-----------------------------------------------------------------|
D|-----------------------------------------------------------------|
A|-----------------------------------------------------------------|
D|-----------------------------------------------------------------| x2

e|---------------------------------9---9-9-----9---9-9-9---9---9-9-|
B|-7-7-7-7---------9-9-9-9-----------7-----7-7---7-------7---7-----|
G|---------7-7-7-7---------9-9-9-9---------------------------------|
D|-----------------------------------------------------------------|
A|-----------------------------------------------------------------|
D|-----------------------------------------------------------------|

e|---------------------------------7-----7---7-7---7-7-7-7-5-5-5-5-|
B|-7-7-7-7---------9-9-9-9-----------7-7---7-----7---------0-0-0-0-|
G|---------7-7-7-7---------9-9-9-9---------------------------------|
D|-----------------------------------------------------------------|
A|-----------------------------------------------------------------|
D|-----------------------------------------------------------------|

Chorus:

e|-9---9-9-----9---9-9-9---9---9-9-7-----7---7-7---7-7-7-7-5-5-5-5-|
B|---7-----7-7---7-------7---7-------7-7---7-----7---------0-0-0-0-|
G|-----------------------------------------------------------------|
D|-----------------------------------------------------------------|
A|-----------------------------------------------------------------|
D|-----------------------------------------------------------------| x2

Breakdown:

-Lead:
e|-9---9-9-----9---9-9-9---9---9-9-7-----7---7-7---7-----7---7-7---|
B|---7-----7-7---7-------7---7-------7-7---7-----7---7-7---7-----7-|
G|-----------------------------------------------------------------|
D|-----------------------------------------------------------------|
A|-----------------------------------------------------------------|
D|-----------------------------------------------------------------| x2

-Rhythm:
e|-----------------------------------------------------------------|
B|-----------------------------------------------------------------|
G|-----------------------------------------------------------------|
D|-0-0-0-0-0-0-0-0-0-0-0-0-0-0-0-0-2-2-2-2-2-2-2-2-2-2-2-2-2-2-2-2-|
A|-0-0-0-0-0-0-0-0-0-0-0-0-0-0-0-0-2-2-2-2-2-2-2-2-2-2-2-2-2-2-2-2-|
D|-0-0-0-0-0-0-0-0-0-0-0-0-0-0-0-0-2-2-2-2-2-2-2-2-2-2-2-2-2-2-2-2-| x2

-Lead:
e|---------------------------|
B|-7-7-7-7--7-7-9-9-9-9--9-9-|
G|---------------------------|
D|---------------------------|
A|---------------------------|
D|---------------------------|

-Rhythm:
e|---------------------------|
B|---------------------------|
G|---------------------------|
D|-0-0-0-0--0-0-2-2-2-2--2-2-|
A|-0-0-0-0--0-0-2-2-2-2--2-2-|
D|-0-0-0-0--0-0-2-2-2-2--2-2-|

Chorus/outro:

e|-9---9-9-----9---9-9-9---9---9-9-7-----7---7-7---7-7-7-7-5-5-5-5-|
B|---7-----7-7---7-------7---7-------7-7---7-----7---------0-0-0-0-|
G|-----------------------------------------------------------------|
D|-----------------------------------------------------------------|
A|-----------------------------------------------------------------|
D|-----------------------------------------------------------------| x7

I'll probably add the rhythm on the outro at a later time. Anyway, there you have it.

************************************

| /   slide up
| \   slide down
| h   hammer-on
| p   pull-off
| ~   vibrato
| +   harmonic
| x   Mute note
| b   Bend
| pb  Pre-bend
| br  Bend release
| pbr Pre-bend release
| brb Bend release bend

************************************
Tap to rate this tab
 
# A B C D E F G H I J K L M N O P Q R S T U V W X Y Z