Song name
# A B C D E F G H I J K L M N O P Q R S T U V W X Y Z

Linkin Park - One Step Closer tab

tunin D-drop half down. Db Ab Db Gb Bb Eb
|--------------------------|
|--------------------------|
|--------------------------|
|--------------------------|
|------------7-------------|
|---0--5--0----8--7--0--3--|  Intro

|-------------------|        |----|
|-------------------|        |----|
|-------9-------5---|        |----|
|--0-0--9---8-7-5---|        |--5-|
|--0-0--7---8-7-3---|        |--5-|
|--0-0------8-7-----| Verses |--5-|Pre-Chorus Chord..(just Palm Mute to Rhythem)

|------------------------------------|
|------------------------------------|
|------------------------------------|
|-1-0--12-12-10-10-7-7-10-10-5-5-9-9-|
|-1-0--12-12-10-10-7-7-8--8--5-5-7-7-| Chorus
|-1-0--12-12-10-10-7-7-8--8--5-5-7-7-|
Tap to rate this tab
# A B C D E F G H I J K L M N O P Q R S T U V W X Y Z