Song name
# A B C D E F G H I J K L M N O P Q R S T U V W X Y Z

Linkin Park - Papercut tab

Dropped D, Down 1/2 step.

Intro:
Eb|--10----12---13----12----10----12----13----12-------|
Bb|-----10----10----10----10---10----10----10-----10---|
F#|----------------------------------------------------|
C#|----------------------------------------------------|
G#|----------------------------------------------------|
C#|----------------------------------------------------|

Chorus:
Eb|----------------------------------------------------|
Bb|----------------------------------------------------|
F#|----------10--9--5----------------------------------|
C#|--0-0-0----x--x--x--------------------------1-1-3---|
G#|--0-0-0----8--7--3--------------------------1-1-3---|
C#|--0-0-0-------------------------------------1-1-3---|

Verses:   (Palm muted for 2nd verse)
Eb|----------------------------------------------------|
Bb|----------------------------------------------------|
F#|----------------------------------------------------|
C#|--0-0-0----3-3-3-3-2-2-------------1-1-3------------|
G#|--0-0-0----1-1-1-1-0-0-------------1-1-3------------|
C#|--0-0-0----------------------------1-1-3------------|

Ending:
Eb|----------------------------------------------------------|
Bb|----------------------------------------------------------|
F#|----------------------------------------------------------|
C#|--8-8-8---8---8-8-10-10-10---5-5-5----5--5-5-5-5---5-5-5--|
G#|--8-8-8---8---8-8-10-10-10---5-5-5----5--5-5-5-5---5-5-5--|
C#|--8-8-8---8---8-8-10-10-10---5-5-5----5--5-5-5-5---5-5-5--|

I'm pretty shore thats it.
Tap to rate this tab
# A B C D E F G H I J K L M N O P Q R S T U V W X Y Z