Song name
# A B C D E F G H I J K L M N O P Q R S T U V W X Y Z

Linkin Park - New Divide Acoustic tab

Here's the deal, I wanted to make it different on purpose. I hadn't seen anyone do 
it in Drop D and I know I could get more minor detail in that way, so I wrote this 
version. About the solo, I haven't heard anyone play it correctly and granted it 
is difficult given that it's digital. So don't complain about my version not being 
right. I made it that way on purpose because it's practical and sounds good. 
Thanks and I hope you enjoy.


Intro

e|--------------------------------------------------|
B|-------------------------------3------------------|
G|----------------------------------2---------------|
D|------2-5--2-----5-9---------0------------7-9-----|
A|----2----------5------7----0------------7------7--|
D|--2----------5-----------0------------7-----------|

Verse

e|--------------------------------------------|
B|----------------------------3---------------|
G|-------------------------------2------------|
D|--222-5-5-2--555-9-9----000---00--777-9-----|
A|--222---2-2--555---5-7--000---00--777---77--|
D|--222---2-2--555---5-5--000---00--777---77--|

Pre-chorus

e|----------------------------|
B|----------------------------|
G|--555xxx5-5-55555-777x7-77--|
D|--555xxx5-5-55555-777x7-77--|
A|--333xxx3-3-33333-555x5-55--|
D|----------------------------|

Chorus pt.1

e|------------------------------------------------------------------------|
B|------------------------------------------------------------------------|
G|--9-9-99-99-9999-7-7-777---------------------------------7-7-777-77777--|
D|--9-9-99-99-9999-7-7-777-7-7-7777--9-99-11-1111-11111111-7-7-777-77777--|
A|--7-7-77-77-7777-5-5-555-7-7-7777--7-77-9--9-9--9-9-9-9--5-5-555-55555--|
D|-------------------------7-7-7777---------------------------------------|

Chorus Pt.2

e|------------------------------------------------------------------|
B|------------------------------------------------------------------|
G|--9-9-99-99-9999-7-7-777------------------------------------------|
D|--9-9-99-99-9999-7-7-777-7-7-7777--5-5-555-55555-77-7777-7-77777--|
A|--7-7-77-77-7777-5-5-555-7-7-7777--3-3-333-33333-55-5555-5-55555--|
D|-------------------------7-7-7777---------------------------------|

Solo

e|----------------------------|
B|-------2-4-------2-4-2-0----|
G|-------------------------4--|
D|-2-2-2-----2-2-2------------| Repeat
A|-2-2-2-----2-2-2------------|
D|-2-2-2-----2-2-2------------|

Solo Variation (harder but sounds better)

e|--------------------------------------------------|
B|-------2-4-------2-4-2-0-------2-4-------2-4-2-0--|
G|--------------------------------------------------|
D|-22222-----2-2-2---------22222-----2-2-2----------| Repeat
A|-22222-----2-2-2---------22222-----2-2-2----------|
D|-22222-----2-2-2---------22222-----2-2-2----------|
Tap to rate this tab
# A B C D E F G H I J K L M N O P Q R S T U V W X Y Z