Song name
# A B C D E F G H I J K L M N O P Q R S T U V W X Y Z

Linkin Park - Giving Up tab

intro:
3x

e----------------------------\
h-----------------------------\
g------------------------------\
d-------------------------------\
a-2-x-x--x-x--x-x-x--x-x--3------\
E-0-x-x--x-x--x-x-x--x-x--1-------\
                                   \
   Then                              2x
                                   /
e---------------------------------/
h--------------------------------/
g-------------------------------/
d------------------------------/
a-2-x-x--x-x--7-7-7--5-5-5----/
E-0-x-x--x-x--5-5-5--3-3-3---/

Refrain/Chorus:

5x

e---------------------------------------------------|
h---------------------------------------------------|
g---------------------------------------------------|
d---------------------------------------------------|
a-2--2-2--2-2--7--7-7--7-7--5--5-5--5-5--3--3-3--3-3|
E-0--0-0--0-0--5--5-5--5-5--3--3-3--3-3--1--1-1--1-1|

Then
(I've Givin uup...)
e-----------------------------------------------------|
h-----------------------------------------------------|
g-----------------------------------------------------|
d-----------------------------------------------------|
a-2--2-2--2-2--7--7-7--7-7--5--5-5--5-5--5--5-5--5-5--|
E-0--0-0--0-0--5--5-5--5-5--3--3-3--3-3--3--3-3--3-3--|

e--------------------------|
h--------------------------|
g--------------------------|
d--------------------------|
a-7--7-7--7-7--x-x-7--x-x-5|
E-5--5-5--5-5--x-x-5--x-x-3|

Verse:
/no guitar\

Chorus

solo:
Tap to rate this tab
# A B C D E F G H I J K L M N O P Q R S T U V W X Y Z