Song name
# A B C D E F G H I J K L M N O P Q R S T U V W X Y Z

Linkin Park - Pushing Me Away tab

Help us improve GuitareTab! Take a short survey!
This is the best song of Linkin Park ever. 
This is also my firs tabs so it has some mistakes but sounbs good.


Intro-(x1) Clean Guitar 1

D#|-12--10---------15-14-12----------10----------------14-10-|
A#|---------12----------------12-10-----12--------10---------|
F#|-------------9---------------------------9-12-------------|
C#|----------------------------------------------------------|
G#|----------------------------------------------------------|
C#|----------------------------------------------------------|

Heavy Part-(x1) Distortion Guitar 1

D#|----------------------------------------------------|
A#|----------------------------------------------------|
F#|----------------------------------------------------|
C#|-4-4-44-44/10-10-1010-1010/5-5-55-55--7-77-9-99--0--|
G#|-2-2-22-22/10-10-1010-1010/5-5-55-55--7-77-9-99--0--|
C#|-2-2-22-22/10-10-1010-1010/5-5-55-55--7-77-9-99--0--|

Verse (x4) Guitar 1

D#|-12--10---------15-14-12----------10----------------14-10-|
A#|---------12----------------12-10-----12--------10---------|
F#|-------------9---------------------------9-12-------------|
C#|----------------------------------------------------------|
G#|----------------------------------------------------------|
C#|----------------------------------------------------------|

Chorus (x2)

Guitar 1
D#|----------------------------------------------------|
A#|----------------------------------------------------|
F#|----------------------------------------------------|
C#|-4-4-44-44/10-10-1010-1010/5-5-55-55--7-77-9-99--0--|
G#|-2-2-22-22/10-10-1010-1010/5-5-55-55--7-77-9-99--0--|
C#|-2-2-22-22/10-10-1010-1010/5-5-55-55--7-77-9-99--0--|

Guitar 2
D#|---------------------------------------------------------|
A#|---------------------------------------------------------|
F#|-11-11-1111-12-12-1212------16-16-1616--1414-16-16-1616--|
C#|--x--x--x-x--x--x--x-x--*12--x--x--x-x---x-x--x--x--x-x--|
G#|--9--9--9-9-10-10-1010------14-14-1414--1212-14-14-1414--|
C#|---------------------------------------------------------|

Verse(x4)

Chorus(x2)

Bridge (both guitars)
D#|-------------------------------------------------------|
A#|-------------------------------------------------------|
F#|-------------------------------------------------------|
C#|-10-10-1010-1010-12-12-1212-1212-7-7-77-77-4-44--55-9--|
G#|-10-10-1010-1010-12-12-1212-1212-7-7-77-77-4-44--55-9--|
C#|-10-10-1010-1010-12-12-1212-1212-7-7-77-77-4-44--55-9--|

D#|--------------------------------------------------------|
A#|--------------------------------------------------------|
F#|--------------------------------------------------------|
C#|-10-10-1010-1010-12-12-1212-1212-7-7-77-77-4-44--55-xx--|
G#|-10-10-1010-1010-12-12-1212-1212-7-7-77-77-4-44--55-xx--|
C#|-10-10-1010-1010-12-12-1212-1212-7-7-77-77-4-44--55-xx--|

Chorus(x2)

Chorus

Guitar 1
D#|----------------------------------------------------------|
A#|----------------------------------------------------------|
F#|----------------------------------------------------------|
C#|-4-4-44-44/10-10-1010-1010/12-12-1212-1212--7-77-9-99--0--|
G#|-2-2-22-22/10-10-1010-1010/12-12-1212-1212--7-77-9-99--0--|
C#|-2-2-22-22/10-10-1010-1010/12-12-1212-1212--7-77-9-99--0--|

Guitar 2
D#|---------------------------------------------------------|
A#|---------------------------------------------------------|
F#|-11-11-1111-12-12-1212------16-16-1616--1414-16-16-1616--|
C#|--x--x--x-x--x--x--x-x--*12--x--x--x-x---x-x--x--x--x-x--|
G#|--9--9--9-9-10-10-1010------14-14-1414--1212-14-14-1414--|
C#|---------------------------------------------------------|


End Any Guitar can play this
D#|--------------------------------|
A#|--------------------------------|
F#|-16161616161616-16161616161616--|
C#|--x-x-x-x-x-x-x--x-x-x-x-x-x-x--|
G#|-14141414141414-14141414141414--|
C#|--------------------------------|

Any questions or comments please send me to my e-mail cementerio_lp@hotmail.com

Related for Pushing Me Away tab