Song name
# A B C D E F G H I J K L M N O P Q R S T U V W X Y Z

Linkin Park - One Step Closer tab

Help us improve GuitareTab! Take a short survey!
Intro

E-------------------------------------------------------------------------------
B-------------------------------------------------------------------------------
G-------------------------------------------------------------------------------
D---------11--------6---7---6---------------------------------------------------
A------------------------------4---7--------------------------------------------
E-----9-------9-----------------------------------------------------------------


Verse
E-------------------------------------------------------------------------------
B-------------------------------------------------------------------------------
G-------------------------5-----------------------------------------------------
D------6--------6---------6--------------4--------------------------------------
A------4--------4---------6--------------2--------------------------------------
E------4--------4---------4--5--4--------2--------------------------------------

Part Before Chorus

E-------------------------------------------------------------------------------
B-------------------------------------------------------------------------------
G-------------------------------------------------------------------------------
D----4--x--x--4--4----2--x--x--4--4--x--x---------------------------------------
A----4--x--x--4--4----2--x--x--4--4--x--x---------------------------------------
E----2--x--x--2--2----2--x--x--2--2--x--x---------------------------------------

Chorus

E-------------------------------------------------------------------------------
B-------------------------------------------------------------------------------
G-------------------------------------------------------------------------------
D---6--6--4--4--6--6--7--7--4--4--6--6--2--2----7-------------------------------
A---4--4--2--2--6--6--7--7--4--4--6--6--2--2----5-------------------------------
E---4--4--2--2--4--4--5--5--2--2--4--4--0--0----5-------------------------------

Middle Part

E-------------------------------------------------------------------------------
B-------------------------------------------------------------------------------
G-------------------------------------------------------------------------------
D-------7--6--x-x--6/7--6--5----------------------------------------------------
A-------5--4--x-x--4/5--4--5----------------------------------------------------
E-------5--4--x-x--4/5--4--3----------------------------------------------------
Related for One Step Closer tab