Linkin Park - Not Alone tab

Not Alone - tabbed by Astat all credit to him

Guitar 1 - Db Ab Db Gb Bb Eb (Clean w/reverb)
Guitar 2 - Db Ab Db Gb Bb Eb (Clean w/reverb)
Intro - Guitar 1 (Palm-muted)
|-------------------------------------------------------------------------------------------------|
|-------------------------------------------------------------------------------------------------|
|-------------------------------------------------------------------------------------------------|
|-------------------------------------------------------------------------------------------------|
|-------------------------------------------------------------------------10-10-10-12-12-12-12-12-|
|-------------------------------------------------------------------------------------------------|

First Verse - Guitar 1 (Palm-muted)
|-------------------------------------------------------------------------------------------------|
|-------------------------------------------------------------------------------------------------|
|-------------------------------------------------------------------------------------------------|
|-------------------------------------------------------------------------------------------------|
|-10-10-10-12-12-12-12-12-10-10-10-12-12-12-12-12-10-10-10-12-12-12-12-12-10-10-10-12-12-12-12-12-|
|-------------------------------------------------------------------------------------------------|

|-------------------------------------------------------------------------------------------------|
|-------------------------------------------------------------------------------------------------|
|-------------------------------------------------------------------------------------------------|
|-------------------------------------------------------------------------------------------------|
|-10-10-10-12-12-12-12-12-10-10-10-12-12-12-12-12-10-10-10-12-12-12-12-12-10-10-10-12-12-12-12-12-|
|-------------------------------------------------------------------------------------------------|

|-------------------------------------------------------------------------------------------------|
|-------------------------------------------------------------------------------------------------|
|-------------------------------------------------------------------------------------------------|
|-14-14-14-12-12-12-12-12-14-14-14-12-12-12-12-12-------------------------------------------------|
|-------------------------------------------------10-10-10-12-12-12-12-12-10-10-10-12-12-12-12-12-|
|-------------------------------------------------------------------------------------------------|

(Let up on palm mute a bit for the last 4 notes)
|-------------------------------------------------|
|-------------------------------------------------|
|-------------------------------------------------|
|-14-14-14-12-12-12-12-12-14-14-14-12-12-12-12-12-|
|-------------------------------------------------|
|-------------------------------------------------|

Chorus - Guitar 1
|-------------------------------------------------------------------------------------------------|
|-------------------------------------------------------------------------------------------------|
|-12-------14-------14----12-------14-------14----12-------14-------14----12-------14-------14----|
|----12-------12-------12----12-------12-------12----12-------12-------12----12-------12-------12-|
|-------14-------14-------------14-------14-------------14-------14-------------14-------14-------|
|-------------------------------------------------------------------------------------------------|

|-------------------------------------------------------------------------------------------------|
|-------------------------------------------------------------------------------------------------|
|-12-------14-------14----12-------14-------14----12-------14-------14----12-------14-------14----|
|----12-------12-------12----12-------12-------12----12-------12-------12----12-------12-------12-|
|-------14-------14-------------14-------14-------------14-------14-------------14-------14-------|
|-------------------------------------------------------------------------------------------------|

Post-Chorus
|-------------------------------------------------------------------------------------------------|
|-------------------------------------------------------------------------------------------------|
|-12-------14-------14----12-------14-------14----12-------14-------14----12-------14-------14----|
|----12-------12-------12----12-------12-------12----12-------12-------12----12-------12-------12-|
|-------14-------14-------------14-------14-------------14-------14-------------14-------14-------|
|-------------------------------------------------------------------------------------------------|
|Guitar 1
|
|-------------------------------------------------------------------------------------------------|
|-------------------------------------------------------------------------------------------------|
|----------7-----------------------7--------7--------------7--------7--------------7--------7-----|
|-9-----------------------9-----------------------9-----------------------9-----------------------|
|-------------------------------------------------------------------------------------------------|
|-------------------------------------------------------------------------------------------------|
|Guitar 2

2nd Verse
|-------------------------------------------------------------------------------------------------|
|-------------------------------------------------------------------------------------------------|
|-12-------14-------14----12-------14-------14----12-------14-------14----12-------14-------14----|
|----12-------12-------12----12-------12-------12----12-------12-------12----12-------12-------12-|
|-------14-------14-------------14-------14-------------14-------14-------------14-------14-------|
|-------------------------------------------------------------------------------------------------|
|Guitar 1
|
|-------------------------------------------------------------------------------------------------|
|-------------------------------------------------------------------------------------------------|
|----------7--------7--------------7--------7--------------7--------7--------------7--------7-----|
|-9-----------------------9-----------------------9-----------------------9-----------------------|
|-------------------------------------------------------------------------------------------------|
|-------------------------------------------------------------------------------------------------|
|Guitar 2

|-------------------------------------------------------------------------------------------------|
|-------------------------------------------------------------------------------------------------|
|-12-------14-------14----12-------14-------14----12-------14-------14----12-------14-------14----|
|----12-------12-------12----12-------12-------12----12-------12-------12----12-------12-------12-|
|-------14-------14-------------14-------14-------------14-------14-------------14-------14-------|
|-------------------------------------------------------------------------------------------------|
|Guitar 1
|
|-------------------------------------------------------------------------------------------------|
|-------------------------------------------------------------------------------------------------|
|----------7--------7--------------7--------7--------------7--------7--------------7--------7-----|
|-9-----------------------9-----------------------9-----------------------9-----------------------|
|-------------------------------------------------------------------------------------------------|
|-------------------------------------------------------------------------------------------------|
|Guitar 2

|-------------------------------------------------------------------------------------------------|
|-------------------------------------------------------------------------------------------------|
|-12-------14-------14----12-------14-------14----12-------14-------14----12-------14-------14----|
|----12-------12-------12----12-------12-------12----12-------12-------12----12-------12-------12-|
|-------14-------14-------------14-------14-------------14-------14-------------14-------14-------|
|-------------------------------------------------------------------------------------------------|
|Guitar 1
|
|-------------------------------------------------------------------------------------------------|
|-------------------------------------------------------------------------------------------------|
|-------------------------7--------7--------7--------------7--------7--------------7--------7-----|
|-7--------7--------7-----------------------------9-----------------------9-----------------------|
|-------------------------------------------------------------------------------------------------|
|-------------------------------------------------------------------------------------------------|
|Guitar 2

|-------------------------------------------------|
|-------------------------------------------------|
|-12-------14-------14----12-------14-------14----|
|----12-------12-------12----12-------12-------12-|
|-------14-------14-------------14-------14-------|
|-------------------------------------------------|
|Guitar 1
|
|-------------------------------------------------|
|-------------------------------------------------|
|-------------------------7--------7--------7-----|
|-7--------7--------7-----------------------------|
|-------------------------------------------------|
|-------------------------------------------------|
|Guitar 2

Chorus
|-------------------------------------------------------------------------------------------------|
|-------------------------------------------------------------------------------------------------|
|-12-------14-------14----12-------14-------14----12-------14-------14----12-------14-------14----|
|----12-------12-------12----12-------12-------12----12-------12-------12----12-------12-------12-|
|-------14-------14-------------14-------14-------------14-------14-------------14-------14-------|
|-------------------------------------------------------------------------------------------------|
|Guitar 1
|
|-------------------------------------------------------------------------------------------------|
|-------------------------------------------------------------------------------------------------|
|----------7--------7--------------7--------7--------------7--------7--------------7--------7-----|
|-9-----------------------9-----------------------9-----------------------9-----------------------|
|-------------------------------------------------------------------------------------------------|
|-------------------------------------------------------------------------------------------------|
|Guitar 2

|-------------------------------------------------------------------------------------------------|
|-------------------------------------------------------------------------------------------------|
|-12-------14-------14----12-------14-------14----12-------14-------14----12-------14-------14----|
|----12-------12-------12----12-------12-------12----12-------12-------12----12-------12-------12-|
|-------14-------14-------------14-------14-------------14-------14-------------14-------14-------|
|-------------------------------------------------------------------------------------------------|
|Guitar 1
|
|-------------------------------------------------------------------------------------------------|
|-------------------------------------------------------------------------------------------------|
|----------7--------7--------------7--------7--------------7--------7--------------7--------7-----|
|-9-----------------------9-----------------------9-----------------------9-----------------------|
|-------------------------------------------------------------------------------------------------|
|-------------------------------------------------------------------------------------------------|
|Guitar 2

|-------------------------------------------------------------------------------------------------|
|-------------------------------------------------------------------------------------------------|
|-12-------14-------14----12-------14-------14----12-------14-------14----12-------14-------14----|
|----12-------12-------12----12-------12-------12----12-------12-------12----12-------12-------12-|
|-------14-------14-------------14-------14-------------14-------14-------------14-------14-------|
|-------------------------------------------------------------------------------------------------|
|Guitar 1
|
|-------------------------------------------------------------------------------------------------|
|-------------------------------------------------------------------------------------------------|
|----------7--------7--------------7--------7--------------7--------7--------------7--------7-----|
|-9-----------------------9-----------------------9-----------------------9-----------------------|
|-------------------------------------------------------------------------------------------------|
|-------------------------------------------------------------------------------------------------|
|Guitar 2

|-------------------------------------------------------------------------------------------------|
|-------------------------------------------------------------------------------------------------|
|-12-------14-------14----12-------14-------14----12-------14-------14----12-------14-------14----|
|----12-------12-------12----12-------12-------12----12-------12-------12----12-------12-------12-|
|-------14-------14-------------14-------14-------------14-------14-------------14-------14-------|
|-------------------------------------------------------------------------------------------------|
|Guitar 1
|
|-------------------------------------------------------------------------------------------------|
|-------------------------------------------------------------------------------------------------|
|----------7--------7--------------7--------7--------------7--------7--------------7--------7-----|
|-9-----------------------9-----------------------9-----------------------9-----------------------|
|-------------------------------------------------------------------------------------------------|
|-------------------------------------------------------------------------------------------------|
|Guitar 2

(No guitar in bridge)

Final Chorus
|-------------------------------------------------------------------------------------------------|
|-------------------------------------------------------------------------------------------------|
|-12-------14-------14----12-------14-------14----12-------14-------14----12-------14-------14----|
|----12-------12-------12----12-------12-------12----12-------12-------12----12-------12-------12-|
|-------14-------14-------------14-------14-------------14-------14-------------14-------14-------|
|-------------------------------------------------------------------------------------------------|
|Guitar 1
|
|-------------------------------------------------------------------------------------------------|
|-------------------------------------------------------------------------------------------------|
|----------7--------7--------------7--------7--------------7--------7--------------7--------7-----|
|-9-----------------------9-----------------------9-----------------------9-----------------------|
|-------------------------------------------------------------------------------------------------|
|-------------------------------------------------------------------------------------------------|
|Guitar 2

|-------------------------------------------------------------------------------------------------|
|-------------------------------------------------------------------------------------------------|
|-12-------14-------14----12-------14-------14----12-------14-------14----12-------14-------14----|
|----12-------12-------12----12-------12-------12----12-------12-------12----12-------12-------12-|
|-------14-------14-------------14-------14-------------14-------14-------------14-------14-------|
|-------------------------------------------------------------------------------------------------|
|Guitar 1
|
|-------------------------------------------------------------------------------------------------|
|-------------------------------------------------------------------------------------------------|
|----------7--------7--------------7--------7--------------7--------7--------------7--------7-----|
|-9-----------------------9-----------------------9-----------------------9-----------------------|
|-------------------------------------------------------------------------------------------------|
|-------------------------------------------------------------------------------------------------|
|Guitar 2

|-------------------------------------------------------------------------------------------------|
|-------------------------------------------------------------------------------------------------|
|-12-------14-------14----12-------14-------14----12-------14-------14----12-------14-------14----|
|----12-------12-------12----12-------12-------12----12-------12-------12----12-------12-------12-|
|-------14-------14-------------14-------14-------------14-------14-------------14-------14-------|
|-------------------------------------------------------------------------------------------------|
|Guitar 1
|
|-------------------------------------------------------------------------------------------------|
|-------------------------------------------------------------------------------------------------|
|----------7--------7--------------7--------7--------------7--------7--------------7--------7-----|
|-9-----------------------9-----------------------9-----------------------9-----------------------|
|-------------------------------------------------------------------------------------------------|
|-------------------------------------------------------------------------------------------------|
|Guitar 2

|-------------------------------------------------------------------------------------------------|
|-------------------------------------------------------------------------------------------------|
|-12-------14-------14----12-------14-------14----12-------14-------14----12-------14-------14----|
|----12-------12-------12----12-------12-------12----12-------12-------12----12-------12-------12-|
|-------14-------14-------------14-------14-------------14-------14-------------14-------14-------|
|-------------------------------------------------------------------------------------------------|
|Guitar 1
|
|-------------------------------------------------------------------------------------------------|
|-------------------------------------------------------------------------------------------------|
|----------7--------7--------------7--------7--------------7--------7--------------7--------7-----|
|-9-----------------------9-----------------------9-----------------------9-----------------------|
|-------------------------------------------------------------------------------------------------|
|-------------------------------------------------------------------------------------------------|
|Guitar 2

Outro
|-------------------------------------------------------------------------------------------------|
|-------------------------------------------------------------------------------------------------|
|-12-------14-------14----12-------14-------14----12-------14-------14----12-------14-------14----|
|----12-------12-------12----12-------12-------12----12-------12-------12----12-------12-------12-|
|-------14-------14-------------14-------14-------------14-------14-------------14-------14-------|
|-------------------------------------------------------------------------------------------------|
|Guitar 1
|
|-------------------------------------------------------------------------------------------------|
|-------------------------------------------------------------------------------------------------|
|----------7--------7--------------7--------7--------------7--------7--------------7--------7-----|
|-9-----------------------9-----------------------9-----------------------9-----------------------|
|-------------------------------------------------------------------------------------------------|
|-------------------------------------------------------------------------------------------------|
|Guitar 2

|-------------------------------------------------------------------------------------------------|
|-------------------------------------------------------------------------------------------------|
|-12-------14-------14----12-------14-------14----12-------14-------14----12-------14-------14----|
|----12-------12-------12----12-------12-------12----12-------12-------12----12-------12-------12-|
|-------14-------14-------------14-------14-------------14-------14-------------14-------14-------|
|-------------------------------------------------------------------------------------------------|
|Guitar 1
|
|-------------------------------------------------------------------------------------------------|
|-------------------------------------------------------------------------------------------------|
|----------7--------7--------------7--------7--------------7--------7--------------7--------7-----|
|-9-----------------------9-----------------------9-----------------------9-----------------------|
|-------------------------------------------------------------------------------------------------|
|-------------------------------------------------------------------------------------------------|
|Guitar 2

(No guitar for rest of song)
Tap to rate this tab
 
# A B C D E F G H I J K L M N O P Q R S T U V W X Y Z