Linkin Park - Wreatches And Kings tab

I just got this badass song E-mailed to me from LP themselves today and figured it 
out in ten minutes enjoy!!!

song: Wreatches and Kings 
Band: Linkin Park
Album: A Thousand Suns



    Intro/Main riff:
    |------------------------------------------------------|
    |-------------------------------------777777777777-----|
    |-------------------------------------555555555555-----|
    |--2--2--2-----2--2--2-----2--2--2---------------------|
    |--2--2--2-----2--2--2-----2--2--2---------------------|
    |--2--2--2-----2--2--2-----2--2--2---------------------|

    



    Pre Chourus:                  (3x)     (4th time)
    |--------------------------------|--------------|
    |--------------------------------|--777777777777|
    |--------------------------------|--555555555555|
    |-----------------------[5]------|--------------|
    |--------------------------------|--------------|
    |--2--x--x--x--3-2---------------|--------------|





    first part of second verse:(with WAH)      (WAH off)
    |-----------------------------------------|---------------|
    |-----------------------------------------|--7777777777777|
    |-----------------------------------------|--5555555555555|
    |------------3----------------------------|---------------|
    |-----3------------5----------------------|---------------|
    |-----------------------------------------|---------------|





     Bridge:(With WAH)
    |----------------------------------------------------------|
    |----------------------------------------------------------|
    |-----------------------4--7----4--7-----------------------|
    |-------4h5p4h5h7p5p4--------------------------------------|
    |----------------------------------------------------------|
    |----------------------------------------------------------|
Tap to rate this tab
 
# A B C D E F G H I J K L M N O P Q R S T U V W X Y Z