Song name
# A B C D E F G H I J K L M N O P Q R S T U V W X Y Z

Linkin Park - One Step Closer tab

Awesome song. Awesome guitar. Pretty easy.
Drop D 1/2 step tuning
(D,A,D,G,B,E)
x=muted
*=harmonics
the whole song is distorted

Intro:
E---------------
B---------------
G---------------
D--------------- Do 4x
A------7--------
D-0-5-7-8-7-0-3-

E--------------
B--------------
G-----9------5-
D-00-07-8-7-03- Do 4x
A-00-07-8-7-03-
D-00-0--8-7-0--

Verse:
E---------------
B---------------
G---------------
D--------------- Do 8x
A------7--------
D-0-5-7-8-7-0-3-

Pre Chorus:
E----------------
B----------------
G----------------
D-xx-x5-xx-x7-xx- Do 1x
A-xx-x5-xx-x7-xx-
D-xx-x5-xx-x7-xx-

Chorus:
E--------------------------
B--------------------------
G--------------------------
D-0--12--10--7--9--5--7--3- Do 2x
A-0--12--10--7--8--5--7--3-
D-0--12--10--7--8--5--7--3-

Verse:(same)

Pre Chorus:
E------------------------------
B------------------------------
G------------------------------
D-xx-x5-xx-x7-xx-x------------- Do 1x
A-xx-x5-xx-x7-xx-x-------------
D-xx-x5-xx-x7-xx-x12*12*12*12*-

Chorus:
E--------------------------             E----------
B--------------------------             B----------
G--------------------------             G----------
D-0--12--10--7--9--5--7--3- Do 4x, than D-22222222- 
A-0--12--10--7--8--5--7--3-             A-11111111-
D-0--12--10--7--8--5--7--3-             D-11111111-


Interlude:
E---------------
B---------------
G---------------
D--------------- Do 4x
A------7--------
D-0-5-7-8-7-0-3-

Bridge:
E-----------------
B-----------------
G-----------------
D-1-0-33-111-00-6- Do 8x
A-1-0-33-111-00-6-
D-1-0-33-111-00-6-

Chorus: 
E--------------------------             E----------
B--------------------------             B----------
G--------------------------             G----------
D-0--12--10--7--9--5--7--3- Do 4x, than D-22222222-
A-0--12--10--7--8--5--7--3-             A-11111111-
D-0--12--10--7--8--5--7--3-             D-11111111-

This is my favorite Linkin Park, song and I am pretty sure it is 100% correct. Rock on!
Tap to rate this tab
# A B C D E F G H I J K L M N O P Q R S T U V W X Y Z