Linkin Park - A Place For My Head tab

Intro 2 parts :

Part 1 x5 times:
E-|-----------------------------------------------|
B-|-----------------------------------------------|
G-|-----------------------------------------------|
D-|------8-8-8--9-8-6-----------------------------|
A-|-6--6---------------9-9--7-7-7-9-6-------------|
D-|-----------------------------------------------|

Part 2 x5 times:

E-|-----------------------------------------------|
B-|-----------------------------------------------|
G-|------3-3-3--4-3-1-----------------------------|
D-|-1--1--------------4--4--2-2-2-4--1------------|
A-|-----------------------------------------------|
D-|-----------------------------------------------|

Verse 1 :
x 5 times with distortion :

E-|-----------------------------------------------|
B-|-----------------------------------------------|
G-|-----------------------------------------------|
D-|------8-8-8--9-8-6-----------------------------|
A-|-6--6---------------9-9--7-7-7-9-6-------------|
D-|-----------------------------------------------|

Chorus x 4 times :

E-|-----------------------------------------------|
B-|-----------------------------------------------|
G-|-----------------------------------------------|
D-|-1-1-1-8h9p8----4-4-2-2-2--4-1-----------------|
A-|-1-1-1-8h9p8----4-4-2-2-2--4-1-----------------|
D-|-1-1-1-8h9p8----4-4-2-2-2--4-1-----------------|

Versre second, 2 parts
(starts with clean to distortion):

Part 1 :

E-|-----------------------------------------------|
B-|-----------------------------------------------|
G-|------3-3-3--4-3-1(clean to)-------------------|
D-|-1--1--------------9--9--7-7-7-9-6(distortion)-|
A-|-----------------------------------------------|
D-|-----------------------------------------------|

Part 2 :

x3 times...
E-|-----------------------------------------------|
B-|-----------------------------------------------|
G-|-----------------------------------------------|
D-|------8-8-8--9-8-6-----------------------------|
A-|-6--6---------------9-9--7-7-7-9-6-------------|
D-|-----------------------------------------------|

Pre - Chorus :

E-|------------------------------------------------|
B-|------------------------------------------------|
G-|------------------------------------------------|
D-|-1-1-1-1-1-4-4-4--1-1-1-1-1-4-4-4--9-9-9-9-9-99-|
A-|-1-1-1-1-1-4-4-4--1-1-1-1-1-4-4-4--9-9-9-9-9-99-|
D-|-1-1-1-1-1-4-4-4--1-1-1-1-1-4-4-4--9-9-9-9-9-99-|

Chorus x 4 times :

E-|-----------------------------------------------|
B-|-----------------------------------------------|
G-|-----------------------------------------------|
D-|-1-1-1-8h9p8----4-4-2-2-2--4-1-----------------|
A-|-1-1-1-8h9p8----4-4-2-2-2--4-1-----------------|
D-|-1-1-1-8h9p8----4-4-2-2-2--4-1-----------------|

Quiet part x3 times :

E-|-----------------------------------------------|
B-|-----------------------------------------------|
G-|-----------------------------------------------|
D-|-----------------------------------------------|
A-|-----------------------------------------------|
D-|-1-1---1-1-------------------------------------|

Screaming part x4 times:

E-|-----------------------------------------------|
B-|-----------------------------------------------|
G-|-----------------------------------------------|
D-|-1-1-1-8h9p8----4-4-2-2-2--4-1-----------------|
A-|-1-1-1-8h9p8----4-4-2-2-2--4-1-----------------|
D-|-1-1-1-8h9p8----4-4-2-2-2--4-1-----------------|

Chorus x4  times :

E-|-----------------------------------------------|
B-|-----------------------------------------------|
G-|-----------------------------------------------|
D-|-1-1-1-8h9p8----4-4-2-2-2--4-1-----------------|
A-|-1-1-1-8h9p8----4-4-2-2-2--4-1-----------------|
D-|-1-1-1-8h9p8----4-4-2-2-2--4-1-----------------|

Bridge 2 parts :

Part 1 x4 times:
E-|-----------------------------------------------|
B-|-----------------------------------------------|
G-|-----------------------------------------------|
D-|-1-1pm---1-1-1-1pm---1-1pm---1-1-1-1/4---------|
A-|-1-1pm---1-1-1-1pm---1-1pm---1-1-1-1/4---------|
D-|-1-1pm---1-1-1-1pm---1-1pm---1-1-1-1/4---------|

Part 2:
(Part A x1 Time)
E-|-----------------------------------------------|
B-|-----------------------------------------------|
G-|-----------------------------------------------|
D-|-1-1pm----1-1-1pm---1-1-1pm----1-1-1/4---------|
A-|-1-1pm----1-1-1pm---1-1-1pm----1-1-1/4---------|
D-|-1-1pm----1-1-1pm---1-1-1pm----1-1-1/4---------|

(Part B x3 Times)
E-|-----------------------------------------------|
B-|-----------------------------------------------|
G-|-----------------------------------------------|
D-|-1-1-1pm----1-1-1pm---1-1-1pm----1-1-1/4-------|
A-|-1-1-1pm----1-1-1pm---1-1-1pm----1-1-1/4-------|
D-|-1-1-1pm----1-1-1pm---1-1-1pm----1-1-1/4-------|

And the song ends on it. Enjoy.
Tap to rate this tab
 
# A B C D E F G H I J K L M N O P Q R S T U V W X Y Z