Linkin Park - Burning In The Skies tab

Linkin Park - Burning in the skies (guitar solo)

With distortion and reverb

Tuning D# A# F# C# G# C#


D# |--------------------------------------------------------------------|
A# |--------------------------------------------------------------------|
F# |-15--15--15-15-15--10--10--10-10-10--13--13--13-13-13--12-12--8-8-8-|
C# |-x---x---x--x--x---x---x---x--x--x---x---x---x--x--x---x--x---x-x-x-|
G# |-13--13--13-13-13--8---8---8--8--8---11--11--11-11-11--10-10--6-6-6-|
C# |--------------------------------------------------------------------|

D# |----------------------------------------|
A# |----------------------------------------|
F# |-10--10--10-10-10--13--13--13-13-13--15-|
C# |--x---x---x--x--x--x---x---x--x--x---x--|
G# |--8---8---8--8--8--11--11--11-11-11--13-|
C# |----------------------------------------|

D# |------------------------------------|
A# |------------------------------------|
F# |-13--13--13-13-13--15--13-13--8-8-8-|
C# |-x---x---x--x--x---x---x--x---x-x-x-|
G# |-11--11--11-11-11--13--11-11--6-6-6-|
C# |------------------------------------|

D# |------------------------------------------------------------------------|
A# |------------------------------------------------------------------------|
F# |-15--15--13-13-13--15--15--13-13-13--15--15--13-13-13--15--15--13-13-13-|
C# |-x---x---x--x--x---x---x---x--x--x---x---x---x--x--x---x---x---x--x--x--|
G# |-13--13--11-11-11--13--13--11-11-11--13--13--11-11-11--13--13--11-11-11-|
C# |------------------------------------------------------------------------|

D# |-------------------------------------------------|
A# |-------------------------------------------------|
F# |-15-15-15-15-17-17-17-17-18-18-18-18-20-20-20-20-|
C# |-x--x--x--x--x--x--x--x--x--x--x--x--x--x--x--x--|
G# |-13-13-13-13-15-15-15-15-16-16-16-16-18-18-18-18-|
C# |-------------------------------------------------|

D# |-------------------------------------------------|
A# |-------------------------------------------------|
F# |-15-15-15-15-17-17-17-17-18-18-18-18-20-20-20-20-|
C# |-x--x--x--x--x--x--x--x--x--x--x--x--x--x--x--x--|
G# |-13-13-13-13-15-15-15-15-16-16-16-16-18-18-18-18-|
C# |-------------------------------------------------|

Tap to rate this tab
 
# A B C D E F G H I J K L M N O P Q R S T U V W X Y Z