Song name
# A B C D E F G H I J K L M N O P Q R S T U V W X Y Z

Linkin Park - Somewhere I Belong tab

Linkin Park
Meteora
Somewhere I Belong
By George H. Rangel
E-MAIL DjGE8@aol.com

I also tab SHE LOVES ME NOT FROM PAPA ROACH

This is a thight song its the boom i hope u guys like it i herd it like 16 times just 2 tab it i hope this is right thanks any thing u have say just email me ok latz

Tuning
Theres 2 ways
Drop-D
DADGBE
But its better in 
Drop-C
C# G# C# F# A# D#

2 Guitar parts

Intro Harmonic's.
D)-------------------------------------------------------------|
A)---(3)-------------------------------------------------------|
F)----4-----4----6---------------------------------------------|
C)----4-----5----7---------------------------------------------|
G)-------------------------------------------------------------|
C)-------------------------------------------------------------|

Just repeat This.
D)-----------5-----------5-------------------------------------|
A)----5-7--7---7--5-7--7---7--5-7------------------------------|
F)-------------------------------------------------------------|
C)-------------------------------------------------------------|
G)-------------------------------------------------------------|
C)-------------------------------------------------------------|

Guitar 1                 
D)---------------------|--------------------|---------------------|
A)---------------------|--------------------|---------------------|
F)---------------------|--------------------|---------------------|
C)-4-4-4-4-4-0-0-0-0-0-|5-5-5-5-5-2-2-2-2-2-|-7-7-7-7-7-2-2-2-2-2-|
G)-2-2-2-2-2-0-0-0-0-0o|5-5-5-5-5-2-2-2-2-2-|-7-7-7-7-7-2-2-2-2-2-|
C)-4-4-4-4-4-0-0-0-0-0-|5-5-5-5-5-2-2-2-2-2-|-7-7-7-7-7-2-2-2-2-2-|

Guitar 2
D)---------------------|--------------------|---------------------|
A)---------------------|--------------------|---------------------|
F)-8-8-8-8-8-9-9-9-9-9-|1111111111-9-9-9-9-9|-6-6-6-6-6-4-4-4-4-4-|
C)-x-x-x-x-x-x-x-x-x-x-|x-x-x-x-x--x-x-x-x-x|-x-x-x-x-x-x-x-x-x-x-|
G)-6-6-6-6-6-7-7-7-7-7-|9-9-9-9-9--7-7-7-7-7|-4-4-4-4-4-2-2-2-2-2-|
C)---------------------|--------------------|---------------------|

Then Guitar 2 at end do this.
D)--------------------------|
A)--------------------------|
F)-4+=======================|
C)-x+===volume swell========|
G)-2+=======================|
C)--------------------------|

Sometimes He dous this in the beging of the guitar chours
|-------|-------|
|-------|-------|
|-------|-------| [*all natural harmonics] (lay finger over fretbar w/o pushing down)
|-[44444|44444]-|  d = downstroke
|-[44444|44444]-|  u = upstroke
|-[44444|44444]-|
   dudud ududu
*Note: These harmonics can also be performed at the 9th fret*


Then after u done that up there u do thins.
D)------------------------------------------------------------|
A)------------------------------------------------------------|
F)--------11-11----------11-11----------11-11----------6/7\6*-| 2x
C)--9---9-x--x-----5---5-x--x-----7---7-x--x-----2---2-x------|
G)--9---9-9--9-----5---5-9--9-----7---7-9--9-----2---2-4/5\4*-|
C)--9---9----------5---5----------7---7----------2---2--------|
					 *slide without restrumming

D)-----------------------------------------------------------|
A)-----------------------------------------------------------|
F)-------11-11----------14-14----------11-11----------6/7\6*-|
C)-9---9-x--x-----5---5-x--x-----7---7-x--x-----2---2-x------|
G)-9---9-9--9-----5---5-12-12----7---7-9--9-----2---2-4/5\4*-|
C)-9---9----------5---5----------7---7----------2---2--------|

Ending
D)----------------------------|---------------|
A)----------------------------|---------------|
F)----------------------------|---------------|
C)--4-4-4-4-4-4-4--[4-4-4-4]--|-4-4-4-4-4-4-4-|
G)--2-2-2-2-2-2-2--[4-4-4-4]--|-2-2-2-2-2-2-2-|
C)--4-4-4-4-4-4-4--[4-4-4-4]--|-4-4-4-4-4-4-4-|
                   d u d u
Tap to rate this tab
# A B C D E F G H I J K L M N O P Q R S T U V W X Y Z