Song name
# A B C D E F G H I J K L M N O P Q R S T U V W X Y Z

Linkin Park - Burning In The Skies tab

Linkin Park - Burning In The Skies
Tuning: Standard
I think quite a few people were interested in this so what the heck :)
100% Sure it's right :D Enjoy :P x

Tabbed by Jo Smith :) (Josmith10)

Into/Verse
e|--------------------------------------------------------|
B|--------------------------------------------------------|
G|--------------------------------------------------------|
D|--10--10---9--7--9-7------------------------------------|
A|--------------------------------------------------------|
E|--------------------------------------------------------|

e|--------------------------------------------------------|
B|--------------------------------------------------------|
G|--------------------------------------------------------|
D|--10--10---12-14--12-10---------------------------------|
A|--------------------------------------------------------|
E|--------------------------------------------------------|

e|--------------------------------------------------------|
B|--------------------------------------------------------|
G|--------------------------------------------------------|
D|--9--9---7--5--7-5--------------------------------------|
A|--------------------------------------------------------|
E|--------------------------------------------------------|

e|------------------------|-------------------------------|
B|------------------------|-------------------------------|
G|-----------------------*|-------------------------------|
D|-------------7------7--*|-----10(x12)--7(x8)------------|
A|--9--9---10-----10------|-------------------------------|
E|------------------------|-------------------------------|
       (Repeat 3 Times)^^
(Chorus)
e|--------------------------------------------------------|
B|--------------------------------------------------------|
G|--------------------------------------------------------|
D|--10(x16)--9(x16)--7(x8)--10(x8)--9(x8)-----------------|
A|--------------------------------------------------------|
E|--------------------------------------------------------|

(Intro/Verse)

(Chorus)
e|--------------------------------------------|-----------|
B|--------------------------------------------|-----------|
G|-------------------------------------------*|-----------|
D|--10(x16)--9(x16)--7(x8)--10(x8)--9(x16)---*|-----------|
A|--------------------------------------------|-----------|
E|--------------------------------------------|-----------|

(Solo)
e|--------------------------------------------------------|
B|--------------------------------------------------------|
G|--------------------------------------------------------|
D|--------------------------------------------------------|
A|--12(x8)--7(x8)--10(x8)--9(x4)--5(x4)-------------------|
E|--------------------------------------------------------|

e|--------------------------------------------------------|
B|--------------------------------------------------------|
G|--------------------------------------------------------|
D|--------------------------------------------------------|
A|--7(x8)--10(x8)--12-10(x8)--12-9(x4)--5(x4)-------------|
E|--------------------------------------------------------|

e|--------------------------------------------------------|
B|--------------------------------------------------------|
G|--------------------------------------------------------|
D|--------------------------------------------------------| x3
A|--12-12-12-10-10-10-10----------------------------------|
E|--------------------------------------------------------|

e|---------------------------------------------------|-----|
B|---------------------------------------------------|-----|
G|--------------------------------------------------*|--21-|
D|--------------------------------------------------*|-----|
A|--12-12-12-12-14-14-14-14-15-15-15-15-17-17-17-17--|-----|
E|---------------------------------------------------|-----|

(Chorus)
e|--------------------------------------------|-----------|
B|--------------------------------------------|-----------|
G|-------------------------------------------*|-----------|
D|--10(x16)--9(x16)--7(x8)--10(x8)--9(x16)---*|---10------|
A|--------------------------------------------|-----------|
E|--------------------------------------------|-----------|

Hope you enjoyed it :P x
Tap to rate this tab
 
# A B C D E F G H I J K L M N O P Q R S T U V W X Y Z