Song name
# A B C D E F G H I J K L M N O P Q R S T U V W X Y Z

Linkin Park - One Step Closer tab

Intro:

E|---------------------|
B|---------------------|
G|---------------------| X4
D|-------------------3-|
A|----5---7----------3-|
E|--0---0---8--7--0--3-|

Riff 1:

E|------------------|
B|------------------|
G|------------------| X12
D|-----0-7----------|
A|-0-0-0-9-8-7--0-5-|
E|-0-0-----8-7--0-3-|

Pre-chorus:

E|-------------------------------|
B|-------------------------------|
G|-------------------------------|
D|-5-5-X-X-X-5-5-X-X-X-5-5-X-X-X-|
A|-5-5-X-X-X-5-5-X-X-X-5-5-X-X-X-|
E|-5-5-X-X-X-5-5-X-X-X-5-5-X-X-X-|

Chorus:

E|-------------------------------------|
B|-------------------------------------|
G|-------------------------------------| X2
D|-0-0-12-12-10-10-7-7-8-8-5-5-7-7-3-3-|
A|-0-0-12-12-10-10-7-7-8-8-5-5-7-7-3-3-|
E|-0-0-12-12-10-10-7-7-8-8-5-5-7-7-3-3-|

Riff 1:

E|------------------|
B|------------------|
G|------------------| X8
D|-----0-7----------|
A|-0-0-0-9-8-7--0-5-|
E|-0-0-----8-7--0-3-|

Pre-chorus:

E|---------------------------------|
B|---------------------------------|
G|---------------------------------|
D|-5-5-X-X-X-5-5-X-X-X-5-5-X-X-X-X-|
A|-5-5-X-X-X-5-5-X-X-X-5-5-X-X-X-X-|
E|-5-5-X-X-X-5-5-X-X-X-5-5-X-X-X-X-|

Chorus:

E|-------------------------------------|    |-----------------|
B|-------------------------------------|    |-----------------|
G|-------------------------------------| X4 |-----------------|
D|-0-0-12-12-10-10-7-7-8-8-5-5-7-7-3-3-|    |-1-1-1-1-1-1-1-1-|
A|-0-0-12-12-10-10-7-7-8-8-5-5-7-7-3-3-|    |-1-1-1-1-1-1-1-1-|
E|-0-0-12-12-10-10-7-7-8-8-5-5-7-7-3-3-|    |-1-1-1-1-1-1-1-1-|


Riff 2:

E|---------------------|
B|---------------------|
G|---------------------| X4
D|-------------------3-|
A|----5---7----------3-|
E|--0---0---8--7--0--3-|

Riff 3:

E|---------------------|
B|---------------------|
G|---------------------| X8
D|-1-0-X-X-X-1-3-1-0-4-|
A|-1-0-X-X-X-1-3-1-0-4-|
E|-1-0-X-X-X-1-3-1-0-4-|

Chorus:

E|-------------------------------------|    |-----------------|
B|-------------------------------------|    |-----------------|
G|-------------------------------------| X4 |-----------------|
D|-0-0-12-12-10-10-7-7-8-8-5-5-7-7-3-3-|    |-1-1-1-1-1-1-1-1-|
A|-0-0-12-12-10-10-7-7-8-8-5-5-7-7-3-3-|    |-1-1-1-1-1-1-1-1-|
E|-0-0-12-12-10-10-7-7-8-8-5-5-7-7-3-3-|    |-1-1-1-1-1-1-1-1-|

Tap to rate this tab
# A B C D E F G H I J K L M N O P Q R S T U V W X Y Z