Song name
# A B C D E F G H I J K L M N O P Q R S T U V W X Y Z

Linkin Park - One Step Closer tab

Help us improve GuitareTab! Take a short survey!
ok here's how u do it. 
first it is drop d tuning and second its really easy!

Tuning: D, A, D, G, B, E



Play 4 times

1---------------------------------
2---------------------------------
3---------------------------------
4---------------------------------
5---------------7-----------------
6------0--5--7----------8--7--0--3
         harm.
Play 4 times
1----------------------------------
2----------------------------------
3-----------9--------------------5-
4---0---0-----------8----7---x-----
5---0---0---7-------8----7---x---3-
6---0---0-----------8----7---x-----

Play 8 times
 I cannot take this...
1----------------------------------
2----------------------------------
3-----------9--------------------5-
4---0---0-----------8----7---x-----
5---0---0---7-------8----7---x---3-
6---0---0-----------8----7---x-----

chorus repeat 5 times:

1---------------------------------------
2---------------------------------------
3---------------------------------------
4--0---12-12--10-10--7-7--10-10--7--3-3-
5--0---12-12--10-10--7-7---8--8--7--1-1-
6--0---12-12--10-10--7-7---8--8--7--1-1-

Bridge repeat 8 times:
 Shut up..
1-------------------------------------------
2-------------------------------------------
3-------------------------------------------
4---1---0-----x---x--x----3--1---0--6--0--3-
5---1---0-----x---x--x----3--1---0--6--0--3-
6---1---0-----x---x--x----3--1---0--6--0--3-

Outro Chorus repeat til end:

1---------------------------------------
2---------------------------------------
3---------------------------------------
4--0---12-12--10-10--7-7--10-10--7--3-3-
5--0---12-12--10-10--7-7---8--8--7--1-1-
6--0---12-12--10-10--7-7---8--8--7--1-1-

.... Break!
Related for One Step Closer tab