Song name
# A B C D E F G H I J K L M N O P Q R S T U V W X Y Z

Linkin Park - Lying From You tab

Help us improve GuitareTab! Take a short survey!
I'm not gonna try to compete with the other guys, I know what I hear though. And this is what it is:
Dropped D tuning down 1 1/2 steps high to low: C#,G#,E,B,F#,B


intro 
Riff 1
|---------------------------------------------------------------------------------------|
|---------------------------------------------------------------------------------------|
|---------------------------------------------------------------------------------------|
|-1-3-3-2-1--4-3-2-1-6-6---1-3-3-2-1--4-3-2-1-6-6---1-3-3-2-1--4-3-2-1-6-6---1-3-3-2-1--|
|-1-3-3-2-1--4-3-2-1-6-6---1-3-3-2-1--4-3-2-1-6-6---1-3-3-2-1--4-3-2-1-6-6---1-3-3-2-1--|
|-1-3-3-2-1--4-3-2-1-6-6---1-3-3-2-1--4-3-2-1-6-6---1-3-3-2-1--4-3-2-1-6-6---1-3-3-2-1--|


|--------|
|--------|
|--------|
|-4-3-2--|
|-4-3-2--|
|-4-3-2--|(no rest, go straight to verse1)


verse1 (When I pretend. . .)
Riff 2
|---------------------------------------|-------------------------|---------------------|
|---------------------------------------|-------------------------|---------------------|
|-----------------9-9-------------------|---9-9-------------------|---9-9---------------|
|-x-x--x-x--4-4---9-9---2-2-2--2--2--4-4|---9-9---2-2-2--2--2--4-4|---9-9---2-2-2--2--2-|
|-x-x--x-x--4-4---7-7---2-2-2--2--2--4-4|---7-7---2-2-2--2--2--4-4|---7-7---2-2-2--2--2-|
|-x-x--x-x--4-4---7-7---2-2-2--2--2--4-4|---7-7---2-2-2--2--2--4-4|---7-7---2-2-2--2--2-|


                 (Lying my way from. . .)
                    sl.
|----|-------------------------------------|
|----|-------------------------------------|
|----|---9-9-9--9-9-9/11-11-11-11-11-11-11-|
|-4-4|---9-9-9--9-9-9/11-11-11-11-11-11-11-|
|-4-4|---7-7-7--7-7-7/9--9--9--9--9--9--9--|
|-4-4|---7-7-7--7-7-7/9--9--9--9--9--9--9--|


chorus
(YOU!. . . )
Riff 3
        sl.                   sl.                                      sl.
|----|----------------------------------------------------------------------------------|
|----|----------------------------------------------------------------------------------|
|----|----------------------------------9-9-9--9-9--------------------------------------|
|-4-4|----------------------------------9-9-9--9-9---2-2--2-2-2-2--0-0------------------|
|-4-4|-4/11-11-11-11-11-7-7-7-7/9-9-9---7-7-7--7-7---2-2--2-2-2-2--0-0--/11-11-11-11-11-|
|-4-4|----------------------------------7-7-7--7-7---2-2--2-2-2-2--0-0------------------|


        sl.    <-after 1st rep. and this single string measure go to Riff 3a.
|--------------|---------------------------|r|
|--------------|---------------------------|e|
|--------------|---------------------------|p|
|--------------|--9-9-9--9-9--2-2--2-2-4-4-|.|
|-7-7-7-7/9-9-9|--9-9-9--9-9--2-2--2-2-4-4-|x|
|--------------|--9-9-9--9-9--2-2--2-2-4-4-|1|


Riff 3a
||---------------------------||
||---------------------------||
||---------------------------||
||-9-9-9--9-9--2-2--2-2--4-4-||
||-9-9-9--9-9--2-2--2-2--4-4-||
||-9-9-9--9-9--2-2--2-2--4-4-||


Repeat verse1 for verse2
Repeat chorus w/the rep. but at the marked measure, go to Riff 3b.

Riff 3b (The very worst part of you, the very worst part of you, IS ME!)
||-----------------------------------------------------||
||-----------------------------------------------------||
||-----------------------------------------------------||
||-9-9-9--9-9--9-9--9-9-9-9---9-9-9--9-9--2-2--x-x-x-x-||
||-9-9-9--9-9--9-9--9-9-9-9---9-9-9--9-9--2-2--x-x-x-x-||
||-9-9-9--9-9--9-9--9-9-9-9---9-9-9--9-9--2-2--x-x-x-x-||(cont. to next measure below)

Riff 4
(Like this, this isn't what I want it to be, I never thought that what I said would have you runnin' from me[IS ME!], like this. . .)
|-----------------------|------------------------|------------------------|-------------|
|-----------------------|------------------------|------------------------|-------------|
|-----------------------|------------------------|------------------------|-------------|
|-1-3-3-2-1--4-3-2-1-6-6|--1-3-3-2-1--4-3-2-1-6-6|--1-3-3-2-1--4-3-2-1-6-6|--1-3-3-2-1--|
|-1-3-3-2-1--4-3-2-1-6-6|--1-3-3-2-1--4-3-2-1-6-6|--1-3-3-2-1--4-3-2-1-6-6|--1-3-3-2-1--|
|-1-3-3-2-1--4-3-2-1-6-6|--1-3-3-2-1--4-3-2-1-6-6|--1-3-3-2-1--4-3-2-1-6-6|--1-3-3-2-1--|

                 (Like this. . .)
                  <-2nd guitar comes in if app.
|------|---------||------------------------|------------------------|-------------------|
|------|---------||------------------------|------------------------|-------------------|
|------|---------||------------------------|------------------------|-------------------|
|-4-3-2|-x-x--x-x||--1-3-3-2-1--4-3-2-1-6-6|--1-3-3-2-1--4-3-2-1-6-6|--1-3-3-2-1--4-3-2-|
|-4-3-2|-x-x--x-x||--1-3-3-2-1--4-3-2-1-6-6|--1-3-3-2-1--4-3-2-1-6-6|--1-3-3-2-1--4-3-2-|
|-4-3-2|-x-x--x-x||--1-3-3-2-1--4-3-2-1-6-6|--1-3-3-2-1--4-3-2-1-6-6|--1-3-3-2-1--4-3-2-|

                            (like this,[NO!])
|------|-----------------------------|
|------|-----------------------------|
|------|-----------------------------|
|-1-6-6|--1-3-3-2-1--4-3-2--x-x--x-x-|
|-1-6-6|--1-3-3-2-1--4-3-2--x-x--x-x-|
|-1-6-6|--1-3-3-2-1--4-3-2--x-x--x-x-|


      sl.                    sl.                                    sl.
|-------------------------------------------------------------------------------------|
|-------------------------------------------------------------------------------------|
|-------------------------------------9-9-9--9-9--------------------------------------|
|-4-4---------------------------------9-9-9--9-9--2-2--2-2-2-2--0-0-------------------|
|-4-4--/11-11-11-11-11-7-7-7-7/9-9-9--7-7-7--7-7--2-2--2-2-2-2--0-0--/11-11-11-11-11--|
|-4-4---------------------------------7-7-7--7-7--2-2--2-2-2-2--0-0-------------------|

        sl.    <-after 1st. rep and single string measure here go to Riff 4a
|--------------|------------------------------|r|
|--------------|------------------------------|e|
|--------------|------------------------------|p|
|--------------|-9-9-9--9-9--2-2--2-2-2-2--4-4|.|
|-7-7-7-7/9-9-9|-9-9-9--9-9--2-2--2-2-2-2--4-4|x|
|--------------|-9-9-9--9-9--2-2--2-2-2-2--4-4|1|


(The very worst part of you, the very worst part of you, is me.)
Riff 4a
|----------------------------------------------------||T
|----------------------------------------------------|| H
|----------------------------------------------------||  E
|-9-9-9--9-9--9-9--9-9-9-9---9-9-9--9-9--2-2---2-2-4-||E
|-9-9-9--9-9--9-9--9-9-9-9---9-9-9--9-9--2-2---2-2-4-|| N
|-9-9-9--9-9--9-9--9-9-9-9---9-9-9--9-9--2-2---2-2-4-||  D

There it is. Any comments, suggestions, or const. critism would be cool. Ya'll hit me up Vabchbo1420@aol.com
I'll have the new cd all tabbed out very soon. The ability to play by ear. . . . .
Related for Lying From You tab