Linkin Park - Iridescent tab

Linkin Park - Iridescent (A Thousand Suns)
DADGBE Tuning
I'm not entirely sure this is exactly how Brad plays it, but I'm pretty sure the notes 
are right. It's just what I got by ear anyways. I'm only tabbing out one guitar part 
at least 2, but I'm just doing one).
Thanks for looking,
Nick (or nickanderson4639 on YouTube)
So here's how I think it goes:
(After 1st chorus)
E|---------------------------------------------------------------------------|
B|-------------------------------------------------------------------5-------|
G|---------------------------------------------------------------------------|......
D|---------------------------------------------------------------------------|
A|---------------------------------------------------------------------------|
D|---------------------------------------------------------------------------|

E|--------------------------------------------------------------------------|
B|---5--------8--------6-------5------1-----------------------------3-------|
G|..........................................................................
D|--------------------------------------------------------------------------|
A|--------------------------------------------------------------------------|
D|--------------------------------------------------------------------------|

E|--------------------------------------------------------------------------|
B|---5--------8--------6-------5------1-----------------------------3-------|
G|..........................................................................
D|--------------------------------------------------------------------------|
A|--------------------------------------------------------------------------|
D|--------------------------------------------------------------------------|

E|--------------------------------------------------------------------------|
B|---5----------------------------------------------------------------------|
G|--------------------------------------------------------------------------|
D|--------------------------------------------------------------------------|
A|--------------------------------------------------------------------------|
D|--------------------------------------------------------------------------|

(The dots mean to tremolo pick those notes)

(Solo):

E|--12--12--12--12--15------12------13------12------13------12--------------|
B|--13--13--13--13--13--13--13--13--13--13--13--13--13--13--13--13----------|
G|--------------------------------------------------------------------------|
D|--------------------------------------------------------------------------|
A|--------------------------------------------------------------------------|
D|--------------------------------------------------------------------------|

E|---8---8---8---8---8---8---8---8---7---7---7---7---7---7---7---7----------|
B|--10--10--10--10--10--10--10--10---8---8---8---8---8---8---8---8----------|
G|--------------------------------------------------------------------------|
D|--------------------------------------------------------------------------|
A|--------------------------------------------------------------------------|
D|--------------------------------------------------------------------------|

E|--12--12--12--12--15------12------13------12------13------12--------------|
B|--13--13--13--13--13--13--13--13--13--13--13--13--13--13--13--13----------|
G|--------------------------------------------------------------------------|
D|--------------------------------------------------------------------------|
A|--------------------------------------------------------------------------|
D|--------------------------------------------------------------------------|

E|---8---8---8---8---8---8---8---8---7---7---7---7---7---7---7---7----------|
B|--10--10--10--10--10--10--10--10---8---8---8---8---8---8---8---8----------|
G|--------------------------------------------------------------------------|
D|--------------------------------------------------------------------------|
A|--------------------------------------------------------------------------|
D|--------------------------------------------------------------------------|

E|--12--12--12--12--15------12------13------12------13------12--------------|
B|--13--13--13--13--13--13--13--13--13--13--13--13--13--13--13--13----------|
G|--------------------------------------------------------------------------|
D|--------------------------------------------------------------------------|
A|--------------------------------------------------------------------------|
D|--------------------------------------------------------------------------|

E|---8---8---8---8---8---8---8---8---7---7---7---7---7---7---7---7----------|
B|--10--10--10--10--10--10--10--10---8---8---8---8---8---8---8---8----------|
G|--------------------------------------------------------------------------|
D|--------------------------------------------------------------------------|
A|--------------------------------------------------------------------------|
D|--------------------------------------------------------------------------|

E|--12--12--12--12--15------12------13------12------13------12--------------|
B|--13--13--13--13--13--13--13--13--13--13--13--13--13--13--13--13----------|
G|--------------------------------------------------------------------------|
D|--------------------------------------------------------------------------|
A|--------------------------------------------------------------------------|
D|--------------------------------------------------------------------------|

E|---8---8---8---8---8---8---8---8---7---7---7---7---7---7---7---7----------|
B|--10--10--10--10--10--10--10--10---8---8---8---8---8---8---8---8----------|
G|--------------------------------------------------------------------------|
D|--------------------------------------------------------------------------|
A|--------------------------------------------------------------------------|
D|--------------------------------------------------------------------------|

E|--12--12--12--12--15------12------13------12------13------12--------------|
B|--13--13--13--13--13--13--13--13--13--13--13--13--13--13--13--13----------|
G|--------------------------------------------------------------------------|
D|--------------------------------------------------------------------------|
A|--------------------------------------------------------------------------|
D|--------------------------------------------------------------------------|

E|---8---8---8---8---8---8---8---8---7---7---7---7---7---7---7---7----------|
B|--10--10--10--10--10--10--10--10---8---8---8---8---8---8---8---8----------|
G|--------------------------------------------------------------------------|
D|--------------------------------------------------------------------------|
A|--------------------------------------------------------------------------|
D|--------------------------------------------------------------------------|

(Not sure about this part but it sounds kind of close, right before when Chester comes 
on "Let it go")

E|---8---8---8---8---8---8---8---8---8---8---8---8---8---8---8---8----------|
B|--10--10--10--10--10--10--10--10--10--10--10--10--10--10--10--10----------|
G|--------------------------------------------------------------------------|
D|--------------------------------------------------------------------------|
A|--------------------------------------------------------------------------|
D|--------------------------------------------------------------------------|

E|---7---7---7---7---7---7---7---7---7---7---7---7---7---7---7---7----------|
A|---8---8---8---8---8---8---8---8---8---8---8---8---8---8---8---8----------|
G|--------------------------------------------------------------------------|
D|--------------------------------------------------------------------------|
A|--------------------------------------------------------------------------|
D|--------------------------------------------------------------------------|

Brad repeats the solo part, and Chester plays some powerchords, which I'll let you 
out. Great song by a great band!
Tap to rate this tab
 
# A B C D E F G H I J K L M N O P Q R S T U V W X Y Z