Guitaretab - guitar tabs
Song name
# A B C D E F G H I J K L M N O P Q R S T U V W X Y Z

Linkin Park - Halo tab

Tabbed by Hass

Db Ab Db Gb Bb Eb Distorted

Lead part, at times, 5th on G does not need to be played.
Play however you want!!!

overview

Harmonic parts

|-----------------------------------------------------------------|
|----------------------------7*-----------------------------------|
|----12*---7*---12*-----5*------7*--------------------------------|
|--------7*--7*---------------------------------------------------|
|-----------------------------------------------------------------|
|-----------------------------------------------------------------|
[ Tab from: http://www.guitaretab.com/l/linkin-park/254453.html ]
|------------12*~----------------------------------------------------|
|-----7*-----------7*~-----------------------------------------------|
|--5*----------------7*~---------------------------------------------|
|--------------------------------------------------------------------|
|--------------------------------------------------------------------|
|--------------------------------------------------------------------|

|-----------------------------------------------------------------|
|-----------------------------------------------------------------|
|-----------------------------------------------------------------|
|-2~------0~-------7~------5~-------------------------------------|
|-2~------0~-------7~------5~-------------------------------------|
|-2~------0~-------7~------5~-------------------------------------|


|-----------------------------------------------------------------|
|-----------------------------------------------------------------|
|-----------------------------------------------------------------|
|-3-3-----3333---3333----3333---3333---x-0------------------------|
|-3-3-----3333---3333----3333---3333---x-0------------------------|
|-3-3-----3333---3333----3333---3333---x-0------------------------|
Related for Halo tab
Halo chords by Linkin Park