Song name
# A B C D E F G H I J K L M N O P Q R S T U V W X Y Z

Linkin Park - What We Dont Know tab

New song From LPUX cd.
Great One.

Intro :

guitar one with delay i think:

e|-----------------------------------|
B|-----------------------------------|
G|-----------------------------------|
D|-------9-9-9---12--11-11-----------|         x8
A|--------------------------12---9---|
E|----7------------------------------|

guitar tow (keyboard) :
e|--------------|
B|--------------|
G|----4----4----|
D|----4----5----|
A|----2----5----|
E|---------3----|

versre :

e|-----------------------------------|
B|-----------------------------------|
G|-----------------------------------|
D|-------9-9-9---12--11-11-----------|    x4
A|--------------------------12---9---|
E|----7------------------------------|


per chours :

e|--------------------|
B|--------------------|
G|----1---4---1----6--|
D|----2---5---2----7--|
A|----2---5---2----7--|
E|----0---3---0----5--|

Chours:

e|-----------------------|
B|-----------------------|
G|----4-------7----------|   x2
D|----4---5---7-----7----|
A|----2---5---5-----7----|
E|--------3---------5----|

verse

per chourse

chours


bridge:

e|-----------------------------------------|
B|-----------------------------------------|
G|-----------------------------------------|
D|----5-5-5-5--7-7-7-7--9-9-9-9---7-7-7-7--|
A|----5-5-5-5--7-7-7-7--9-9-9-9---7-7-7-7--|    x2
E|----3-3-3-3--5-5-5-5--7-7-7-7---5-5-5-5--|

lsat time on bridge:

e|------------------------------------|
B|------------------------------------|
G|------------------------------------|
D|----5-5-5-5--7-7-7-7-7-7-7-7-7------|
A|----5-5-5-5--7-7-7-7-7-7-7-7-7------|
E|----3-3-3-3--5-5-5-5-5-5-5-5-5------|

then chours:

e|-----------------------|
B|-----------------------|
G|----4-------7----------|   x6
D|----4---5---7-----7----|
A|----2---5---5-----7----|

end with the intro:
e|-----------------------------------|
B|-----------------------------------|
G|-----------------------------------|
D|-------9-9-9---12--11-11-----------|    x4
A|--------------------------12---9---|
E|----7------------------------------|
Tap to rate this tab
 
# A B C D E F G H I J K L M N O P Q R S T U V W X Y Z