Song name
# A B C D E F G H I J K L M N O P Q R S T U V W X Y Z

Linkin Park - Pale tab

Title: Pale (2006 Demo)
Artist: Linkin Park
Album: LPUX: Demos

Tuning: Drop D (D A D G B E) 


   B      E     F#      G      A
E|------|------|------|------|------|
B|------|------|------|------|------|
G|------|------|------|------|------|
D|-9----|-2----|-4----|-5----|-7----|
A|-9----|-2----|-4----|-5----|-7----|      
D|-9----|-2----|-4----|-5----|-7----|



Clean Part : 2:15

E|--------------------|
B|-12-12----12-12~----|
G|-------12-----------|
D|--------------------|
A|--------------------|
D|--------------------|

Distorted part : 2:36


Fade in...

E|------|
B|--*12-|
G|------|
D|------|
A|------|  
D|------|


The main riff.

E|-------------------------------------------|
B|-------------------------------------------|
G|-------------------------------------------|
D|--7/---9999--9999--9999--2222--2222--2244--|
A|--7/---9999--9999--9999--2222--2222--2244--|
D|--7/---9999--9999--9999--2222--2222--2244--|
                      
E|----------------------------------|
B|----------------------------------|
G|----------------------------------|
D|--5555--5555--5555--7777--7777----|
A|--5555--5555--5555--7777--7777----|
D|--5555--5555--5555--7777--7777----|
Tap to rate this tab
 
# A B C D E F G H I J K L M N O P Q R S T U V W X Y Z