Song name
# A B C D E F G H I J K L M N O P Q R S T U V W X Y Z

Linkin Park - Pale tab

-------------------------------------------------------------------------------
			     lINKIN pARK - PALE
-------------------------------------------------------------------------------
Tabbed by:Hass

Linkin Park - Pale (LPU x)

Tuning:B F# B E G# C#


C#|---------------------------------------------------------------------------|
G#|---------------------------------------------------------------------------|
E |---------------------------------------------------------------------------|
B |0-0-0-0---0-0-0-0---0-0-0-0---5-5-5-5---5-5-5-5---5-5-5-5------------------|
F#|0-0-0-0---0-0-0-0---0-0-0-0---5-5-5-5---5-5-5-5---5-5-5-5------------------|
B |0-0-0-0---0-0-0-0---0-0-0-0---5-5-5-5---5-5-5-5---5-5-5-5------------------|

G#|---------------------------------------------------------------------------|
C#|---------------------------------------------------------------------------|
E |---------------------------------------------------------------------------|
B |8-8-8-8---8-8-8-8---8-8-8-8---10-10-10-10---10-10-10-10---10-10-7-7--------|
F#|8-8-8-8---8-8-8-8---8-8-8-8---10-10-10-10---10-10-10-10---10-10-7-7--------|
B |8-8-8-8---8-8-8-8---8-8-8-8---10-10-10-10---10-10-10-10---10-10-7-7--------|

C#|---------------------------------------------------------------------------|
G#|---------------------------------------------------------------------------|
E |---------------------------------------------------------------------------|
B |0-0-0-0---0-0-0-0---0-0-0-0---5-5-5-5---5-5-5-5---5-5-5-5------------------|
F#|0-0-0-0---0-0-0-0---0-0-0-0---5-5-5-5---5-5-5-5---5-5-5-5------------------|
B |0-0-0-0---0-0-0-0---0-0-0-0---5-5-5-5---5-5-5-5---5-5-5-5------------------|

G#|---------------------------------------------------------------------------|
C#|---------------------------------------------------------------------------|
E |---------------------------------------------------------------------------|
B |8-8-8-8---8-8-8-8---8-8-8-8---10-10-10-10---10-10-10-10---10-10-7-7--------|
F#|8-8-8-8---8-8-8-8---8-8-8-8---10-10-10-10---10-10-10-10---10-10-7-7--------|
B |8-8-8-8---8-8-8-8---8-8-8-8---10-10-10-10---10-10-10-10---10-10-7-7--------|

C#|---------------------------------------------------------------------------|
G#|---------------------------------------------------------------------------|
E |---------------------------------------------------------------------------|
B |X-X-X-X--------------------------------------------------------------------|
F#|X-X-X-X--------------------------------------------------------------------|
B |X-X-X-X--------------------------------------------------------------------|

C#|---------------------------------------------------------------------------|
G#|---------------------------------------------------------------------------|
E |---------------------------------------------------------------------------|
B |0-0-0-0---0-0-0-0---0-0-0-0---5-5-5-5---5-5-5-5---5-5-5-5------------------|
F#|0-0-0-0---0-0-0-0---0-0-0-0---5-5-5-5---5-5-5-5---5-5-5-5------------------|
B |0-0-0-0---0-0-0-0---0-0-0-0---5-5-5-5---5-5-5-5---5-5-5-5------------------|

G#|---------------------------------------------------------------------------|
C#|---------------------------------------------------------------------------|
E |---------------------------------------------------------------------------|
B |8-8-8-8---8-8-8-8---8-8-8-8---10-10-10-10---10-10-10-10---10-10-7-7--------|
F#|8-8-8-8---8-8-8-8---8-8-8-8---10-10-10-10---10-10-10-10---10-10-7-7--------|
B |8-8-8-8---8-8-8-8---8-8-8-8---10-10-10-10---10-10-10-10---10-10-7-7--------|


************************************

| /   slide up
| \   slide down
| h   hammer-on
| p   pull-off
| ~   vibrato
| +   harmonic
| x   Mute note
| b   Bend
| pb  Pre-bend
| br  Bend release
| pbr Pre-bend release
| brb Bend release bend

************************************
Tap to rate this tab
 
# A B C D E F G H I J K L M N O P Q R S T U V W X Y Z