Song name
# A B C D E F G H I J K L M N O P Q R S T U V W X Y Z

Linkin Park - Forgotten tab

Tuning: Dropped C# (Dropped D and Half-Step Down)

Riff:   
(Distorted Guitar)
|----------------------------------------|
|----------------------------------------|
|----------------------------------------|
|-3-2---2---2--2-2-3-2---2--------(*5)---|
|-3-2---2---2--2-2-3-2---2---(*5)--------|
|-3-2---2---2--2-2-3-2---2---------------|

Then...
First Time:
|----------------------------------------|
|----------------------------------------|
|----------------------------------------|
|-3-2---2---2--2-2-3-2---2---------------|
|-3-2---2---2--2-2-3-2---2---------------|
|-3-2---2---2--2-2-3-2---2---------------|
Second Time:
|-----------------|
|-----------------|
|-----------------|
|-3---3---22225---|
|-3---3---22225---|
|-3---3---22225---|



Verse:  (Clean Guitar w/ Reverb)
|------------------------------------|
|------12----------------------------|
|------------14----------------12~---|
|---------12----14----------12-------|_____________________
|-0-12-------------15-12-15----------|                     |
|------------------------------------|                     |
                                                           |
|------------------------------------------|               |-x2
|------12----------------------------------|               |
|------------14----------------------12~---|               |
|---------12----14-------14h12----12-------|_______________|
|-0-12-------------15-12-------12----------|
|------------------------------------------|



Chorus:   (Distorted Guitar)
|----------------------------------------|
|----------------------------------------|
|----------------------------------------|
|-7---7---910--10-10---10-10---910--10---|   x4
|-7---7---78---8--10---10-10---910--10---|
|-7---7-----------10---10-10---910--10---|



Bridge:   (Distorted Guitar)
|------------------------------|
|------------------------------|
|------------------------------|
|------------3---3-3---2--3--5-|   x2
|------------3---3-3---2--3--5-|
|------------3---3-3---2--3--5-|

|---------------------------------|
|---------------------------------|
|---------------------------------|
|-7---7---5--7--3---3-3---2--3--5-|   x3
|-7---7---5--7--3---3-3---2--3--5-|
|-7---7---5--7--3---3-3---2--3--5-|

|-----------------------------------|
|-----------------------------------|
|-----------------------------------|
|-3---3---3--3--2---2-2---5---5-5---|
|-3---3---3--3--2---2-2---5---5-5---|
|-3---3---3--3--2---2-2---5---5-5---|



Outro:   (Clean Guitar)
|-----------------------------------------|
|-----------------------------------------|
|-----------------------------------------|
|-7---7---910--10-10---10-10---910--10~---|
|-7---7---78---8--10---10-10---910--10~---|
|-7---7-----------10---10-10---910--10~---|
Tap to rate this tab
 
# A B C D E F G H I J K L M N O P Q R S T U V W X Y Z