Song name
# A B C D E F G H I J K L M N O P Q R S T U V W X Y Z

Linkin Park - Burning In The Skies tab

-----------------------------------------------------------------------------
	              Burning in the Skies - Linkin Park
-----------------------------------------------------------------------------

Tabbed by: Woodly
Tuning: Standard
No distortion!
Great song, great album, great band


This tab is only for the verse. You'll figure out the tempo yourself if yo
listen to the song carefully. I'm not sure but this is maybe a 6/8 time.


  Am                   C                   G
e|-------------------|-------------------|-------------------|
B|-------------------|-------3--5--3-----|-------------------|
G|-5--5--4--2--4-2---|-5--5----------5---|-4--4--2--0--2-0---|
D|-------------------|-------------------|-------------------|
A|-0--0--0--0--0-0---|-3--3--3--3--3-3---|-------------------|
E|-------------------|-------------------|-3--3--3--3--3-3---|

  D
e|-------------------|
B|-------------------|
G|-------0--1--0-1---|
D|-4--4--0--0--0-0---|
A|-5--5--------------|
E|-------------------|



For chorus check other taps on this page.
Tap to rate this tab
 
# A B C D E F G H I J K L M N O P Q R S T U V W X Y Z