Linkin Park - Iridescent Acoustic tab

-------------------------------------------------------------------------------
			     Linkin Park - Iridescent
-------------------------------------------------------------------------------
Tabbed by:steviec_x32010
Email:silverthorn666@hotmail.co.uk
THIS TAB IS AN ACOUSTIC COVER SO ITS NOT NOTE FOR NOTE PERFECT BUT SOUNDS GREAT! ENJOY
Tuning:STANDARD

INTRO
strumming pattern is just downstrokes.
e|---------------------------------------------------------|
B|---------------------------------------------------------|
G|-2---2---2---2---2---2---2---2---------------------------| X2
D|-2---2---2---2-0-3---3---3---3-0-------------------------|
A|-----------0---------------3-----------------------------|
E|---------------------------------------------------------|

VERSE 1
On the cd this part has a strumming pattern of 1 downstroke per chord but i like to play 
it with 4 on the acoustic
 to stop it being a bit boring lol

"standing in the wake...."
e|-0---0---0---0---0---0---0---0---------------------------|
B|-1---1---1---1---1---1---1---1---------------------------|
G|-0---0---0---0---2---2---2---2---------------------------| X2
D|-2---2---2---2---3---3---3---3---------------------------|
A|-3---3---3---3---3---3---3---3---------------------------|
E|---------------------------------------------------------|

"cataclysm raining down...."
e|-0---0---0---0---0---0---0---0---------------------------|
B|-1---1---1---1---1---1---1---1---------------------------|
G|-2---2---2---2---2---2---2---2---------------------------|
D|-2---2---2---2---3---3---3---3---------------------------|
A|-0---0---0---0---3---3---3---3---------------------------|
E|---------------------------------------------------------|

"you were there..."
e|-0---0---0---0---3---3---3---3---------------------------|
B|-1---1---1---1---3---3---3---3---------------------------|
G|-2---2---2---2---0---0---0---0---------------------------|
D|-2---2---2---2---0---0---0---0---------------------------|
A|-0---0---0---0---2---2---2---2---------------------------|
E|-----------------3---3---3---3---------------------------|

CHORUS

"Do you feel cold..."
STRUMMING PATTERN
   D   D   D DUD DUD   D   D DUD DU
e|-0---0---0-000-000---0---0-003-33------------------------|
B|-1---1---1-111-111---1---1-113-33------------------------|
G|-0---0---0-002-222---2---2-220-00------------------------|
D|-2---2---2-223-332---2---2-220-00------------------------| X3
A|-3---3---3-333-330---0---0-002-22------------------------|
E|-----------------------------3-33------------------------|

"And let it go..."
strumming pattern all downstrokes
e|-0---0---0---0---3---3---3---3---------------------------|
B|-1---1---1---1---3---3---3---3---------------------------|
G|-2---2---2---2---0---0---0---0---------------------------|
D|-3---3---3---3---0---0---0---0---------------------------|
A|-3---3---3---3---2---2---2---2---------------------------|
E|-----------------3---3---3---3---------------------------|

INTERLUDE
All downstrokes again and played faster
e|-00003000100010000000000033333333------------------------|
B|-11111111111111111111111133333333------------------------|
G|-00000000000000002222222200000000------------------------| X2
D|-22222222222222222222222200000000------------------------|
A|-33333333333333330000000022222222------------------------|
E|-------------------------33333333------------------------|
bit confusing lol but theres 16 strums of C , 8 of Am and 8 of G if thats any help. 
second time round
 just play and hold 1 G chord then ur into the verse. play it the chorus and the 
interlude again.
*the 3 note changes on the high E string (during C chord) are not essential but do make 
a difference.
After the fast paced interlude ur into a fast paced chorus which is similar but with an 
F chord in there

FAST CHORUS
"cold and lost..."
e|-00003000100000000000000033333333------------------------|
B|-11111111111111111111111133333333------------------------|
G|-00000000000022222222222200000000------------------------| X3
D|-22222222222233332222222200000000------------------------|
A|-33333333333333330000000022222222------------------------|
E|-------------------------33333333------------------------|

* 12 C chords , 4 F chords , 8 Am chords , 8 G chords

e|-00000000000000003333333333333333------------------------|
B|-11111111111111113333333333333333------------------------|
G|-22222222222222220000000000000000------------------------|
D|-33333333333333330000000000000000------------------------|
A|-33333333333333332222222222222222------------------------|
E|-----------------3333333333333333------------------------|
*16 F chords and 16 G chords

play interlude part again

"Let it go oh oh oh, oh"
e|-00003000100010000000000033333333------------------------|
B|-11111111111111111111111133333333------------------------|
G|-00000000000000002222222200000000------------------------| X3
D|-22222222222222222222222200000000------------------------|
A|-33333333333333330000000022222222------------------------|
E|-------------------------33333333------------------------|
then play this once
e|-00000000000000003333333333333333------------------------|
B|-11111111111111113333333333333333------------------------|
G|-22222222222222220000000000000000------------------------|
D|-33333333333333330000000000000000------------------------|
A|-33333333333333332222222222222222------------------------|
E|-----------------3333333333333333------------------------|

now play the fast paced chorus again

e|-00003000100000000000000033333333------------------------|
B|-11111111111111111111111133333333------------------------|
G|-00000000000022222222222200000000------------------------| X3
D|-22222222222233332222222200000000------------------------|
A|-33333333333333330000000022222222------------------------|
E|-------------------------33333333------------------------|

e|-00000000000000003333333333333333------------------------|
B|-11111111111111113333333333333333------------------------|
G|-22222222222222220000000000000000------------------------|
D|-33333333333333330000000000000000------------------------|
A|-33333333333333332222222222222222------------------------|
E|-----------------3333333333333333------------------------|


i will update this with the small outro soon sorry.lol hope you enjoyed this tab. any 
questions just email me thanks

************************************

| /   slide up
| \   slide down
| h   hammer-on
| p   pull-off
| ~   vibrato
| +   harmonic
| x   Mute note
| b   Bend
| pb  Pre-bend
| br  Bend release
| pbr Pre-bend release
| brb Bend release bend

************************************
Tap to rate this tab
 
# A B C D E F G H I J K L M N O P Q R S T U V W X Y Z