Linkin Park - My December tab


E--------0-------0-------0-------0-----|
B------6---6---6---6---6---6---6---6---|
G----7-------7-------5-------5---------|
D--------------------------------------|
A--------------------------------------|
E--------------------------------------|

E--------0-------0-------0-------0-----|
B------6---6---6---6---6---6---6---6---|
G----7-------7-------5-------5---------|
D--------------------------------------|
A--------------------------------------|
E--------------------------------------|

E--------0-------0-------0-------0-----|
B------6---6---6---6---6---6---6---6---|
G----7-------7-------5-------5---------|
D--------------------------------------|
A--------------------------------------|
E--------------------------------------|
repeat for all the song!!
Tap to rate this tab
 
# A B C D E F G H I J K L M N O P Q R S T U V W X Y Z