Song name
# A B C D E F G H I J K L M N O P Q R S T U V W X Y Z

Linkin Park - What Ive Done tab

Title: What Ive Done 
Artist: Linkin Park
Album: Minutes To Midnight


Tuning: Drop D (D A D G B E)

Piano Riff

E|--10-10-11-10-10-|
B|-8--8--------8---|
G|-----------------| 
D|-----------------| 
A|-----------------| 
D|-----------------|


Chorus

E|--------------------------------------------------|
B|--------------------------------------------------|
G|--------------------------------------------------| 
D|-8-8-8-8-8-8-8-8-7-7-8-8-8-8-8-8-10-10------------| 
A|-5-5-5-5-5-5-5-5-5-5-8-8-8-8-8-8-8--8-------------| 
D|-5-5-5-5-5-5-5-5-5-5-8-8-8-8-8-8-8--8-------------|

E|--------------------------------------------------|
B|--------------------------------------------------|
G|--------------------------------------------------| 
D|-7-7-7-7-7-7-7-7-10-10-10-10-10-10-10-10----------| 
A|-3-3-3-3-3-3-3-3-10-10-10-10-10-10-12-12----------| 
D|-3-3-3-3-3-3-3-3-10-10-10-10-10-10-10-10----------|

E|--------------------------------------------------|
B|--------------------------------------------------|
G|--------------------------------------------------| 
D|-8-8-8-8-8-8-8-8-7-7-8-8-8-8-8-8-10-10------------| 
A|-5-5-5-5-5-5-5-5-5-5-8-8-8-8-8-8-8--8-------------| 
D|-5-5-5-5-5-5-5-5-5-5-8-8-8-8-8-8-8--8-------------|

E|--------------------------------------------------|
B|--------------------------------------------------|
G|--------------------------------------------------| 
D|-7-7-7-7-7-7-7-7-10-10-10-10-10-10-10-10-8~~------| 
A|-3-3-3-3-3-3-3-3-10-10-10-10-10-10-12-12-5~~------| 
D|-3-3-3-3-3-3-3-3-10-10-10-10-10-10-10-10-5~~------|


Verse 1:(Piano riff is repeated for each line)

In this farewell,
there's no blood,
there's no alibi.
Cause I've drawn regret,
from the truth,
of a thousand lies.


Pre-chorus: (piano part just plays 10th fret high E until chorus comes in)

So let mercy come
and wash away.
Chorus

E|--------------------------------------------------|
B|--------------------------------------------------|
G|--------------------------------------------------| 
D|-8-8-8-8-8-8-8-8-7-7-8-8-8-8-8-8-10-10------------| 
A|-5-5-5-5-5-5-5-5-5-5-8-8-8-8-8-8-8--8-------------| 
D|-5-5-5-5-5-5-5-5-5-5-8-8-8-8-8-8-8--8-------------|

E|--------------------------------------------------|
B|--------------------------------------------------|
G|--------------------------------------------------| 
D|-7-7-7-7-7-7-7-7-10-10-10-10-10-10-10-10----------| 
A|-3-3-3-3-3-3-3-3-10-10-10-10-10-10-12-12----------| 
D|-3-3-3-3-3-3-3-3-10-10-10-10-10-10-10-10----------|

E|--------------------------------------------------|
B|--------------------------------------------------|
G|--------------------------------------------------| 
D|-8-8-8-8-8-8-8-8-7-7-8-8-8-8-8-8-10-10------------| 
A|-5-5-5-5-5-5-5-5-5-5-8-8-8-8-8-8-8--8-------------| 
D|-5-5-5-5-5-5-5-5-5-5-8-8-8-8-8-8-8--8-------------|

E|--------------------------------------------------|
B|--------------------------------------------------|
G|--------------------------------------------------| 
D|-7-7-7-7-7-7-7-7-10-10-10-10-10-10-10-10-8~~------| 
A|-3-3-3-3-3-3-3-3-10-10-10-10-10-10-12-12-5~~------| 
D|-3-3-3-3-3-3-3-3-10-10-10-10-10-10-10-10-5~~------|


What I've done,
I'll face myself,
To cross out what I've become,
Erase myself,
and let go of what I've done.

Verse 2: (piano riff repeated again)

Put to rest,
What you thought of me.
While I clean this slate,
with the hands of uncertainty.


Pre-chorus (Same as above)

Chorus 

E|--------------------------------------------------|
B|--------------------------------------------------|
G|--------------------------------------------------| 
D|-8-8-8-8-8-8-8-8-7-7-8-8-8-8-8-8-10-10------------| 
A|-5-5-5-5-5-5-5-5-5-5-8-8-8-8-8-8-8--8-------------| 
D|-5-5-5-5-5-5-5-5-5-5-8-8-8-8-8-8-8--8-------------|

E|--------------------------------------------------|
B|--------------------------------------------------|
G|--------------------------------------------------| 
D|-7-7-7-7-7-7-7-7-10-10-10-10-10-10-10-10----------| 
A|-3-3-3-3-3-3-3-3-10-10-10-10-10-10-12-12----------| 
D|-3-3-3-3-3-3-3-3-10-10-10-10-10-10-10-10----------|

E|--------------------------------------------------|
B|--------------------------------------------------|
G|--------------------------------------------------| 
D|-8-8-8-8-8-8-8-8-7-7-8-8-8-8-8-8-10-10------------| 
A|-5-5-5-5-5-5-5-5-5-5-8-8-8-8-8-8-8--8-------------| 
D|-5-5-5-5-5-5-5-5-5-5-8-8-8-8-8-8-8--8-------------|

E|--------------------------------------------------------|
B|--------------------------------------------------------|
G|--------------------------------------------------------| 
D|-7-7-7-7-7-7-7-7-10-10-10-10-10-10-10-10-10-10-10-10-10-| 
A|-3-3-3-3-3-3-3-3-10-10-10-10-12-12-12-12-13-13-13-13-15-| 
D|-3-3-3-3-3-3-3-3-10-10-10-10-10-10-10-10-10-10-10-10-10-|



Solo (lead guitar): let ring all

E|----------------------------------------------------------------------------|
B|----------------------------------11~~~~~~----------------------------------|
G|----10----10----10----10----12----------------10----10----10----10----12----| 
D|-12----12----12----12----12----12----------12----12----12----12----12----12-|
A|----------------------------------------------------------------------------| 
D|----------------------------------------------------------------------------|

E|---------------------------------------------------------|
B|-10----------------------------------------------11~~~~~-|
G|-------12----10----10----10----10----10----12------------| 
D|----12----12----12----12----12----12----12----12---------|
A|---------------------------------------------------------|
D|---------------------------------------------------------|


E|----------------------------------------------------------|
B|----------------------------------10----------------------|
G|----10----10----10----10----12----------12----10----12----| 
D|-12----12----12----12----12----12----12----12----12----12-|
A|----------------------------------------------------------| 
D|----------------------------------------------------------|

E|------------------------------|
B|-11---------10----------------|
G|-------12---------12----12~~~~| 
D|----12----12---12----12-------| 
A|------------------------------| 
D|------------------------------|


Bridge (just the lead guitar playing):

E|--------------------------------------------------|
B|--------------------------------------------------|
G|--------------------------------------------------| 
D|-8-8-8-8-8-8-8-8-7-7-8-8-8-8-8-8-10-10------------| 
A|-5-5-5-5-5-5-5-5-5-5-8-8-8-8-8-8-8--8-------------| 
D|-5-5-5-5-5-5-5-5-5-5-8-8-8-8-8-8-8--8-------------|

E|--------------------------------------------------|
B|--------------------------------------------------|
G|--------------------------------------------------| 
D|-7-7-7-7-7-7-7-7-10-10-10-10-10-10-10-10----------| 
A|-3-3-3-3-3-3-3-3-10-10-10-10-10-10-12-12----------| 
D|-3-3-3-3-3-3-3-3-10-10-10-10-10-10-10-10----------|
Chorus:

E|--------------------------------------------------|
B|--------------------------------------------------|
G|--------------------------------------------------| 
D|-8-8-8-8-8-8-8-8-7-7-8-8-8-8-8-8-10-10------------| 
A|-5-5-5-5-5-5-5-5-5-5-8-8-8-8-8-8-8--8-------------| 
D|-5-5-5-5-5-5-5-5-5-5-8-8-8-8-8-8-8--8-------------|

E|--------------------------------------------------|
B|--------------------------------------------------|
G|--------------------------------------------------| 
D|-7-7-7-7-7-7-7-7-10-10-10-10-10-10-10-10----------| 
A|-3-3-3-3-3-3-3-3-10-10-10-10-10-10-12-12----------| 
D|-3-3-3-3-3-3-3-3-10-10-10-10-10-10-10-10----------|

E|--------------------------------------------------|
B|--------------------------------------------------|
G|--------------------------------------------------| 
D|-8-8-8-8-8-8-8-8-7-7-8-8-8-8-8-8-10-10------------| 
A|-5-5-5-5-5-5-5-5-5-5-8-8-8-8-8-8-8--8-------------| 
D|-5-5-5-5-5-5-5-5-5-5-8-8-8-8-8-8-8--8-------------|

E|--------------------------------------------------|
B|--------------------------------------------------|
G|--------------------------------------------------| 
D|-7-7-7-7-7-7-7-7-10-10-10-10-10-10-10-10----------| 
A|-3-3-3-3-3-3-3-3-10-10-10-10-10-10-12-12----------| 
D|-3-3-3-3-3-3-3-3-10-10-10-10-10-10-10-10----------|

E|--------------------------------------------------|
B|--------------------------------------------------|
G|--------------------------------------------------| 
D|-8-8-8-8-8-8-8-8-7-7-8-8-8-8-8-8-10-10------------| 
A|-5-5-5-5-5-5-5-5-5-5-8-8-8-8-8-8-8--8-------------| 
D|-5-5-5-5-5-5-5-5-5-5-8-8-8-8-8-8-8--8-------------|

E|--------------------------------------------------|
B|--------------------------------------------------|
G|--------------------------------------------------| 
D|-7-7-7-7-7-7-7-7-10-10-10-10-10-10-10-10-8~~~-----| 
A|-3-3-3-3-3-3-3-3-10-10-10-10-10-10-12-12-5~~~-----| 
D|-3-3-3-3-3-3-3-3-10-10-10-10-10-10-10-10-5~~~-----|


Outro:

E|---10---10-11p10---10-| \
B|-8----8----------8----|  \
G|----------------------|   \
D|----------------------|    > x4
A|----------------------|   /
D|----------------------|  /

Tap to rate this tab
 
# A B C D E F G H I J K L M N O P Q R S T U V W X Y Z